  0
SECTION
  2
HEADER
  9
$ACADVER
  1
AC1024
  9
$ACADMAINTVER
 70
   109
  9
$DWGCODEPAGE
  3
ANSI_1250
  9
$LASTSAVEDBY
  1
Dell
  9
$INSBASE
 10
0.0
 20
0.0
 30
0.0
  9
$EXTMIN
 10
7571200.4
 20
5723760.63
 30
0.0
  9
$EXTMAX
 10
7573490.37
 20
5725033.879999999
 30
0.7
  9
$LIMMIN
 10
7571200.4
 20
5723760.63
  9
$LIMMAX
 10
7573490.37
 20
5725033.879999999
  9
$ORTHOMODE
 70
     0
  9
$REGENMODE
 70
     1
  9
$FILLMODE
 70
     1
  9
$QTEXTMODE
 70
     0
  9
$MIRRTEXT
 70
     0
  9
$LTSCALE
 40
1.0
  9
$ATTMODE
 70
     1
  9
$TEXTSIZE
 40
0.2
  9
$TRACEWID
 40
0.05
  9
$TEXTSTYLE
  7
STANDARD
  9
$CLAYER
  8
0
  9
$CELTYPE
  6
CONTINUOUS
  9
$CECOLOR
 62
   256
  9
$CELTSCALE
 40
1.0
  9
$DISPSILH
 70
     0
  9
$DIMSCALE
 40
1.0
  9
$DIMASZ
 40
2.5
  9
$DIMEXO
 40
0.625
  9
$DIMDLI
 40
0.38
  9
$DIMRND
 40
0.0
  9
$DIMDLE
 40
0.0
  9
$DIMEXE
 40
1.25
  9
$DIMTP
 40
0.0
  9
$DIMTM
 40
0.0
  9
$DIMTXT
 40
2.5
  9
$DIMCEN
 40
0.09
  9
$DIMTSZ
 40
0.0
  9
$DIMTOL
 70
     0
  9
$DIMLIM
 70
     0
  9
$DIMTIH
 70
     1
  9
$DIMTOH
 70
     1
  9
$DIMSE1
 70
     0
  9
$DIMSE2
 70
     0
  9
$DIMTAD
 70
     0
  9
$DIMZIN
 70
     0
  9
$DIMBLK
  1

  9
$DIMASO
 70
     1
  9
$DIMSHO
 70
     1
  9
$DIMPOST
  1

  9
$DIMAPOST
  1

  9
$DIMALT
 70
     0
  9
$DIMALTD
 70
     2
  9
$DIMALTF
 40
25.4
  9
$DIMLFAC
 40
1.0
  9
$DIMTOFL
 70
     0
  9
$DIMTVP
 40
0.0
  9
$DIMTIX
 70
     0
  9
$DIMSOXD
 70
     0
  9
$DIMSAH
 70
     0
  9
$DIMBLK1
  1

  9
$DIMBLK2
  1

  9
$DIMSTYLE
  2
Standard
  9
$DIMCLRD
 70
     0
  9
$DIMCLRE
 70
     0
  9
$DIMCLRT
 70
     0
  9
$DIMTFAC
 40
1.0
  9
$DIMGAP
 40
0.625
  9
$DIMJUST
 70
     0
  9
$DIMSD1
 70
     0
  9
$DIMSD2
 70
     0
  9
$DIMTOLJ
 70
     1
  9
$DIMTZIN
 70
     0
  9
$DIMALTZ
 70
     0
  9
$DIMALTTZ
 70
     0
  9
$DIMUPT
 70
     0
  9
$DIMDEC
 70
     4
  9
$DIMTDEC
 70
     4
  9
$DIMALTU
 70
     2
  9
$DIMALTTD
 70
     2
  9
$DIMTXSTY
  7
STANDARD
  9
$DIMAUNIT
 70
     0
  9
$DIMADEC
 70
     0
  9
$DIMALTRND
 40
0.0
  9
$DIMAZIN
 70
     0
  9
$DIMDSEP
 70
    46
  9
$DIMATFIT
 70
     3
  9
$DIMFRAC
 70
     0
  9
$DIMLDRBLK
  1

  9
$DIMLUNIT
 70
     2
  9
$DIMLWD
 70
    -2
  9
$DIMLWE
 70
    -2
  9
$DIMTMOVE
 70
     0
  9
$DIMFXL
 40
1.0
  9
$DIMFXLON
 70
     0
  9
$DIMJOGANG
 40
0.7853981633974483
  9
$DIMTFILL
 70
     0
  9
$DIMTFILLCLR
 70
     0
  9
$DIMARCSYM
 70
     0
  9
$DIMLTYPE
  6

  9
$DIMLTEX1
  6

  9
$DIMLTEX2
  6

  9
$DIMTXTDIRECTION
 70
     0
  9
$LUNITS
 70
     2
  9
$LUPREC
 70
     4
  9
$SKETCHINC
 40
0.1
  9
$FILLETRAD
 40
0.0
  9
$AUNITS
 70
     0
  9
$AUPREC
 70
     0
  9
$MENU
  1
.
  9
$ELEVATION
 40
0.0
  9
$PELEVATION
 40
0.0
  9
$THICKNESS
 40
0.0
  9
$LIMCHECK
 70
     0
  9
$CHAMFERA
 40
0.0
  9
$CHAMFERB
 40
0.0
  9
$CHAMFERC
 40
0.0
  9
$CHAMFERD
 40
0.0
  9
$SKPOLY
 70
     0
  9
$TDCREATE
 40
2305824.216358229
  9
$TDUCREATE
 40
44937.8589783912
  9
$TDUPDATE
 40
2459956.902215452
  9
$TDUUPDATE
 40
2459956.860548785
  9
$TDINDWG
 40
0.0013032060
  9
$TDUSRTIMER
 40
0.0013029514
  9
$USRTIMER
 70
     1
  9
$ANGBASE
 50
0.0
  9
$ANGDIR
 70
     0
  9
$PDMODE
 70
     0
  9
$PDSIZE
 40
0.0
  9
$PLINEWID
 40
0.0
  9
$SPLFRAME
 70
     0
  9
$SPLINETYPE
 70
     6
  9
$SPLINESEGS
 70
     8
  9
$HANDSEED
  5
10001B6
  9
$SURFTAB1
 70
     6
  9
$SURFTAB2
 70
     6
  9
$SURFTYPE
 70
     6
  9
$SURFU
 70
     6
  9
$SURFV
 70
     6
  9
$UCSBASE
  2

  9
$UCSNAME
  2

  9
$UCSORG
 10
0.0
 20
0.0
 30
0.0
  9
$UCSXDIR
 10
1.0
 20
0.0
 30
0.0
  9
$UCSYDIR
 10
0.0
 20
1.0
 30
0.0
  9
$UCSORTHOREF
  2

  9
$UCSORTHOVIEW
 70
     0
  9
$UCSORGTOP
 10
0.0
 20
0.0
 30
0.0
  9
$UCSORGBOTTOM
 10
0.0
 20
0.0
 30
0.0
  9
$UCSORGLEFT
 10
0.0
 20
0.0
 30
0.0
  9
$UCSORGRIGHT
 10
0.0
 20
0.0
 30
0.0
  9
$UCSORGFRONT
 10
0.0
 20
0.0
 30
0.0
  9
$UCSORGBACK
 10
0.0
 20
0.0
 30
0.0
  9
$PUCSBASE
  2

  9
$PUCSNAME
  2

  9
$PUCSORG
 10
0.0
 20
0.0
 30
0.0
  9
$PUCSXDIR
 10
1.0
 20
0.0
 30
0.0
  9
$PUCSYDIR
 10
0.0
 20
1.0
 30
0.0
  9
$PUCSORTHOREF
  2

  9
$PUCSORTHOVIEW
 70
     0
  9
$PUCSORGTOP
 10
0.0
 20
0.0
 30
0.0
  9
$PUCSORGBOTTOM
 10
0.0
 20
0.0
 30
0.0
  9
$PUCSORGLEFT
 10
0.0
 20
0.0
 30
0.0
  9
$PUCSORGRIGHT
 10
0.0
 20
0.0
 30
0.0
  9
$PUCSORGFRONT
 10
0.0
 20
0.0
 30
0.0
  9
$PUCSORGBACK
 10
0.0
 20
0.0
 30
0.0
  9
$USERI1
 70
     0
  9
$USERI2
 70
     0
  9
$USERI3
 70
     0
  9
$USERI4
 70
     0
  9
$USERI5
 70
     0
  9
$USERR1
 40
0.0
  9
$USERR2
 40
0.0
  9
$USERR3
 40
0.0
  9
$USERR4
 40
0.0
  9
$USERR5
 40
0.0
  9
$WORLDVIEW
 70
     1
  9
$SHADEDGE
 70
     3
  9
$SHADEDIF
 70
    70
  9
$TILEMODE
 70
     1
  9
$MAXACTVP
 70
    64
  9
$PINSBASE
 10
0.0
 20
0.0
 30
0.0
  9
$PLIMCHECK
 70
     0
  9
$PEXTMIN
 10
1.000000000000000E+20
 20
1.000000000000000E+20
 30
1.000000000000000E+20
  9
$PEXTMAX
 10
-1.000000000000000E+20
 20
-1.000000000000000E+20
 30
-1.000000000000000E+20
  9
$PLIMMIN
 10
0.0
 20
0.0
  9
$PLIMMAX
 10
210.0
 20
297.0
  9
$UNITMODE
 70
     0
  9
$VISRETAIN
 70
     1
  9
$PLINEGEN
 70
     0
  9
$PSLTSCALE
 70
     1
  9
$TREEDEPTH
 70
  3020
  9
$CMLSTYLE
  2
Standard
  9
$CMLJUST
 70
     0
  9
$CMLSCALE
 40
1.0
  9
$PROXYGRAPHICS
 70
     1
  9
$MEASUREMENT
 70
     0
  9
$CELWEIGHT
370
    -1
  9
$ENDCAPS
280
     0
  9
$JOINSTYLE
280
     0
  9
$LWDISPLAY
290
     1
  9
$INSUNITS
 70
     6
  9
$HYPERLINKBASE
  1

  9
$STYLESHEET
  1

  9
$XEDIT
290
     1
  9
$CEPSNTYPE
380
     0
  9
$PSTYLEMODE
290
     1
  9
$FINGERPRINTGUID
  2
{72256CE0-198C-42BB-859E-B9BE53EF65B7}
  9
$VERSIONGUID
  2
{FA76CFC8-729C-49BA-B746-ABEE89453B07}
  9
$EXTNAMES
290
     1
  9
$PSVPSCALE
 40
0.0
  9
$OLESTARTUP
290
     0
  9
$SORTENTS
280
   127
  9
$INDEXCTL
280
     0
  9
$HIDETEXT
280
     1
  9
$XCLIPFRAME
280
     2
  9
$HALOGAP
280
     0
  9
$OBSCOLOR
 70
   257
  9
$OBSLTYPE
280
     0
  9
$INTERSECTIONDISPLAY
280
     0
  9
$INTERSECTIONCOLOR
 70
   257
  9
$DIMASSOC
280
     2
  9
$PROJECTNAME
  1

  9
$CAMERADISPLAY
290
     0
  9
$LENSLENGTH
 40
50.0
  9
$CAMERAHEIGHT
 40
0.0
  9
$STEPSPERSEC
 40
2.0
  9
$STEPSIZE
 40
6.0
  9
$3DDWFPREC
 40
2.0
  9
$PSOLWIDTH
 40
0.25
  9
$PSOLHEIGHT
 40
4.0
  9
$LOFTANG1
 40
1.570796326794896
  9
$LOFTANG2
 40
1.570796326794896
  9
$LOFTMAG1
 40
0.0
  9
$LOFTMAG2
 40
0.0
  9
$LOFTPARAM
 70
     7
  9
$LOFTNORMALS
280
     1
  9
$LATITUDE
 40
37.795
  9
$LONGITUDE
 40
-122.394
  9
$NORTHDIRECTION
 40
0.0
  9
$TIMEZONE
 70
 -8000
  9
$LIGHTGLYPHDISPLAY
280
     1
  9
$TILEMODELIGHTSYNCH
280
     1
  9
$CMATERIAL
347
1000005
  9
$SOLIDHIST
280
     0
  9
$SHOWHIST
280
     1
  9
$DWFFRAME
280
     2
  9
$DGNFRAME
280
     0
  9
$REALWORLDSCALE
290
     1
  9
$INTERFERECOLOR
 62
     1
  9
$INTERFEREOBJVS
345
1000027
  9
$INTERFEREVPVS
346
1000024
  9
$CSHADOW
280
     0
  9
$SHADOWPLANELOCATION
 40
0.0
  0
ENDSEC
  0
SECTION
  2
CLASSES
  0
CLASS
  1
WIPEOUT
  2
AcDbWipeout
  3
WipeOut|Product Desc: Object Enabler for WipeOut entity | Company: Autodesk, Inc. | WEB Address: www.autodesk.com
 90
     2175
 91
        0
280
     0
281
     1
  0
CLASS
  1
WIPEOUTVARIABLES
  2
AcDbWipeoutVariables
  3
"WipeOut|Product Desc:     WipeOut Dbx Application|Company:          Autodesk, Inc.|WEB Address:      www.autodesk.com"
 90
        0
 91
        1
280
     0
281
     0
  0
CLASS
  1
ACDBDICTIONARYWDFLT
  2
AcDbDictionaryWithDefault
  3
ObjectDBX Classes
 90
        0
 91
        1
280
     0
281
     0
  0
CLASS
  1
DICTIONARYVAR
  2
AcDbDictionaryVar
  3
ObjectDBX Classes
 90
        0
 91
       10
280
     0
281
     0
  0
CLASS
  1
MATERIAL
  2
AcDbMaterial
  3
ObjectDBX Classes
 90
     1153
 91
        3
280
     0
281
     0
  0
CLASS
  1
VISUALSTYLE
  2
AcDbVisualStyle
  3
ObjectDBX Classes
 90
     4095
 91
       24
280
     0
281
     0
  0
CLASS
  1
TABLESTYLE
  2
AcDbTableStyle
  3
ObjectDBX Classes
 90
     4095
 91
        1
280
     0
281
     0
  0
CLASS
  1
SCALE
  2
AcDbScale
  3
ObjectDBX Classes
 90
     1153
 91
       17
280
     0
281
     0
  0
CLASS
  1
MLEADERSTYLE
  2
AcDbMLeaderStyle
  3
ACDB_MLEADERSTYLE_CLASS
 90
     4095
 91
        1
280
     0
281
     0
  0
CLASS
  1
ACDBSECTIONVIEWSTYLE
  2
AcDbSectionViewStyle
  3
ObjectDBX Classes
 90
     1025
 91
        1
280
     0
281
     0
  0
CLASS
  1
ACDBDETAILVIEWSTYLE
  2
AcDbDetailViewStyle
  3
ObjectDBX Classes
 90
     1025
 91
        1
280
     0
281
     0
  0
CLASS
  1
SORTENTSTABLE
  2
AcDbSortentsTable
  3
ObjectDBX Classes
 90
        0
 91
        1
280
     0
281
     0
  0
CLASS
  1
CELLSTYLEMAP
  2
AcDbCellStyleMap
  3
ObjectDBX Classes
 90
     1152
 91
        1
280
     0
281
     0
  0
ENDSEC
  0
SECTION
  2
TABLES
  0
TABLE
  2
VPORT
  5
1
330
0
100
AcDbSymbolTable
 70
     1
  0
VPORT
  5
2
330
1
100
AcDbSymbolTableRecord
100
AcDbViewportTableRecord
  2
*ACTIVE
 70
     0
 10
0.0
 20
0.0
 11
1.0
 21
1.0
 12
7571572.737512024
 22
5724130.99316604
 13
0.0
 23
0.0
 14
1.0
 24
1.0
 15
0.0
 25
0.0
 16
0.0
 26
0.0
 36
1.0
 17
0.0
 27
0.0
 37
0.0
 40
3777.313496503503
 41
1.90482233502538
 42
50.0
 43
0.0
 44
0.0
 50
0.0
 51
0.0
 71
     0
 72
   100
 73
     1
 74
     1
 75
     0
 76
     0
 77
     0
 78
     0
281
     0
 65
     1
110
0.0
120
0.0
130
0.0
111
1.0
121
0.0
131
0.0
112
0.0
122
1.0
132
0.0
 79
     0
146
0.0
348
1000023
 60
     3
 61
     5
292
     1
282
     1
141
0.0
142
0.0
 63
   250
421
  3355443
1001
ACAD_NAV_VCDISPLAY
1070
     3
  0
ENDTAB
  0
TABLE
  2
LTYPE
  5
3
330
0
100
AcDbSymbolTable
 70
     2
  0
LTYPE
  5
4
330
3
100
AcDbSymbolTableRecord
100
AcDbLinetypeTableRecord
  2
ByBlock
 70
     0
  3

 72
    65
 73
     0
 40
0.0
  0
LTYPE
  5
5
330
3
100
AcDbSymbolTableRecord
100
AcDbLinetypeTableRecord
  2
ByLayer
 70
     0
  3

 72
    65
 73
     0
 40
0.0
  0
LTYPE
  5
6
330
3
100
AcDbSymbolTableRecord
100
AcDbLinetypeTableRecord
  2
CONTINUOUS
 70
     0
  3
Solid line
 72
    65
 73
     0
 40
0.0
  0
LTYPE
  5
100004E
330
3
100
AcDbSymbolTableRecord
100
AcDbLinetypeTableRecord
  2
PHANTOM2
 70
     0
  3
___ _ _ ___ _ _ ___ _ _ ___ _ _
 72
    65
 73
     6
 40
1.25
 49
0.625
 74
     0
 49
-0.125
 74
     0
 49
0.125
 74
     0
 49
-0.125
 74
     0
 49
0.125
 74
     0
 49
-0.125
 74
     0
  0
ENDTAB
  0
TABLE
  2
LAYER
  5
7
330
0
100
AcDbSymbolTable
 70
     2
  0
LAYER
  5
8
102
{ACAD_XDICTIONARY
360
1000175
102
}
330
7
100
AcDbSymbolTableRecord
100
AcDbLayerTableRecord
  2
0
 70
     0
 62
     7
  6
CONTINUOUS
370
    18
390
9
347
1000015
  0
LAYER
  5
A
102
{ACAD_XDICTIONARY
360
1000177
102
}
330
7
100
AcDbSymbolTableRecord
100
AcDbLayerTableRecord
  2
ObszarDR10
 70
     0
 62
     7
  6
CONTINUOUS
370
    18
390
9
347
1000015
  0
ENDTAB
  0
TABLE
  2
STYLE
  5
B
330
0
100
AcDbSymbolTable
 70
     2
  0
STYLE
  5
C
330
B
100
AcDbSymbolTableRecord
100
AcDbTextStyleTableRecord
  2
STANDARD
 70
     0
 40
0.0
 41
1.0
 50
0.0
 71
     0
 42
0.2
  3
simplex.shx
  4

  0
STYLE
  5
D
330
B
100
AcDbSymbolTableRecord
100
AcDbTextStyleTableRecord
  2
STANDARD_ITALIC
 70
     0
 40
0.0
 41
1.0
 50
15.0
 71
     0
 42
0.2
  3
simplex.shx
  4

  0
ENDTAB
  0
TABLE
  2
VIEW
  5
E
330
0
100
AcDbSymbolTable
 70
     0
  0
ENDTAB
  0
TABLE
  2
UCS
  5
F
330
0
100
AcDbSymbolTable
 70
     0
  0
ENDTAB
  0
TABLE
  2
APPID
  5
10
330
0
100
AcDbSymbolTable
 70
     2
  0
APPID
  5
11
330
10
100
AcDbSymbolTableRecord
100
AcDbRegAppTableRecord
  2
ACAD
 70
     0
  0
APPID
  5
1000182
330
10
100
AcDbSymbolTableRecord
100
AcDbRegAppTableRecord
  2
ACAD_NAV_VCDISPLAY
 70
     0
  0
ENDTAB
  0
TABLE
  2
DIMSTYLE
  5
12
330
0
100
AcDbSymbolTable
 70
     1
100
AcDbDimStyleTable
 71
     0
  0
DIMSTYLE
105
13
330
12
100
AcDbSymbolTableRecord
100
AcDbDimStyleTableRecord
  2
Standard
 70
     0
340
C
  0
ENDTAB
  0
TABLE
  2
BLOCK_RECORD
  5
14
330
0
100
AcDbSymbolTable
 70
     0
  0
BLOCK_RECORD
  5
15
102
{ACAD_XDICTIONARY
360
10000BA
102
}
330
14
100
AcDbSymbolTableRecord
100
AcDbBlockTableRecord
  2
*Model_Space
340
16
 70
     0
280
     1
281
     0
  0
BLOCK_RECORD
  5
17
330
14
100
AcDbSymbolTableRecord
100
AcDbBlockTableRecord
  2
*Paper_Space
340
18
 70
     0
280
     1
281
     0
  0
ENDTAB
  0
ENDSEC
  0
SECTION
  2
BLOCKS
  0
BLOCK
  5
19
330
15
100
AcDbEntity
  8
0
100
AcDbBlockBegin
  2
*Model_Space
 70
     0
 10
0.0
 20
0.0
 30
0.0
  3
*Model_Space
  1

  0
ENDBLK
  5
1A
330
15
100
AcDbEntity
  8
0
100
AcDbBlockEnd
  0
BLOCK
  5
1B
330
17
100
AcDbEntity
 67
     1
  8
0
100
AcDbBlockBegin
  2
*Paper_Space
 70
     0
 10
0.0
 20
0.0
 30
0.0
  3
*Paper_Space
  1

  0
ENDBLK
  5
1C
330
17
100
AcDbEntity
 67
     1
  8
0
100
AcDbBlockEnd
  0
ENDSEC
  0
SECTION
  2
ENTITIES
  0
TEXT
  5
188
330
15
100
AcDbEntity
  8
ObszarDR10
370
    50
100
AcDbText
 39
0.5
 10
7571538.012857143
 20
5724206.51
 30
0.0
 40
2.5
  1
446
 41
0.6600000000000001
 72
     1
 11
7571540.095
 21
5724207.76
 31
0.0
100
AcDbText
 73
     2
  0
TEXT
  5
189
330
15
100
AcDbEntity
  8
ObszarDR10
370
    50
100
AcDbText
 39
0.5
 10
7571736.022857144
 20
5724087.475
 30
0.0
 40
2.5
  1
449
 41
0.6600000000000001
 72
     1
 11
7571738.105
 21
5724088.725
 31
0.0
100
AcDbText
 73
     2
  0
TEXT
  5
18A
330
15
100
AcDbEntity
  8
ObszarDR10
370
    50
100
AcDbText
 39
0.5
 10
7571570.043571427
 20
5724105.69
 30
0.0
 40
2.5
  1
224/3
 41
0.6600000000000001
 72
     1
 11
7571573.814999999
 21
5724106.94
 31
0.0
100
AcDbText
 73
     2
  0
TEXT
  5
18B
330
15
100
AcDbEntity
  8
ObszarDR10
370
    50
100
AcDbText
 39
0.5
 10
7571664.783571427
 20
5724045.880000001
 30
0.0
 40
2.5
  1
448
 41
0.6600000000000001
 72
     1
 11
7571666.904999998
 21
5724047.130000001
 31
0.0
100
AcDbText
 73
     2
  0
TEXT
  5
18C
330
15
100
AcDbEntity
  8
ObszarDR10
370
    50
100
AcDbText
 39
0.5
 10
7571550.437142857
 20
5724214.19
 30
0.0
 40
2.5
  1
225/1
 41
0.6600000000000001
 72
     1
 11
7571553.855000001
 21
5724215.44
 31
0.0
100
AcDbText
 73
     2
  0
TEXT
  5
18D
330
15
100
AcDbEntity
  8
ObszarDR10
370
    50
100
AcDbText
 39
0.5
 10
7571592.898571428
 20
5724239.695000001
 30
0.0
 40
2.5
  1
225/2
 41
0.6600000000000001
 72
     1
 11
7571596.669999999
 21
5724240.945
 31
0.0
100
AcDbText
 73
     2
  0
TEXT
  5
18E
330
15
100
AcDbEntity
  8
ObszarDR10
370
    50
100
AcDbText
 39
0.5
 10
7572439.994285714
 20
5724396.005
 30
0.0
 40
2.5
  1
153/1
 41
0.6600000000000001
 72
     1
 11
7572443.255
 21
5724397.255
 31
0.0
100
AcDbText
 73
     2
  0
TEXT
  5
18F
330
15
100
AcDbEntity
  8
0
370
    50
100
AcDbText
 39
0.5
 10
7571582.890787399
 20
5724118.826317863
 30
0.0
 40
2.5
  1
-12.35-
 50
-331.0
 41
0.6600000000000001
 72
     1
 11
7571587.761603207
 21
5724120.573460097
 31
0.0
100
AcDbText
 73
     1
  0
TEXT
  5
190
330
15
100
AcDbEntity
  8
0
370
    50
100
AcDbText
 39
0.5
 10
7571596.5857874
 20
5724126.486317865
 30
0.0
 40
2.5
  1
-19.03-
 50
-331.0
 41
0.6600000000000001
 72
     1
 11
7571601.456603207
 21
5724128.233460098
 31
0.0
100
AcDbText
 73
     1
  0
TEXT
  5
191
330
15
100
AcDbEntity
  8
0
370
    50
100
AcDbText
 39
0.5
 10
7571626.973347159
 20
5724143.485133494
 30
0.0
 40
2.5
  1
-50.92-
 50
-331.0
 41
0.6600000000000001
 72
     1
 11
7571631.981603206
 21
5724145.308460098
 31
0.0
100
AcDbText
 73
     1
  0
TEXT
  5
192
330
15
100
AcDbEntity
  8
0
370
    50
100
AcDbText
 39
0.5
 10
7571700.32421165
 20
5724074.218854038
 30
0.0
 40
2.5
  1
-203.59-
 50
-61.0
 41
0.6600000000000001
 72
     1
 11
7571702.528460098
 21
5724068.523396794
 31
0.0
100
AcDbText
 73
     1
  0
TEXT
  5
193
330
15
100
AcDbEntity
  8
0
370
    50
100
AcDbText
 39
0.5
 10
7571711.845672889
 20
5723955.419377635
 30
0.0
 40
2.5
  1
-82.25-
 50
-328.0
 41
0.6600000000000001
 72
     1
 11
7571716.751639753
 21
5723957.502317301
 31
0.0
100
AcDbText
 73
     1
  0
TEXT
  5
194
330
15
100
AcDbEntity
  8
0
370
    50
100
AcDbText
 39
0.5
 10
7571629.460396019
 20
5724032.436413797
 30
0.0
 40
2.5
  1
-207.01-
 50
-61.0
 41
0.6600000000000001
 72
     1
 11
7571631.588460097
 21
5724026.878396792
 31
0.0
100
AcDbText
 73
     1
  0
TEXT
  5
195
330
15
100
AcDbEntity
  8
0
370
    70
100
AcDbText
 39
0.7
 10
7571611.66656429
 20
5724129.60447431
 30
0.0
 40
3.5
  1
-82.30-
 50
-330.8
 41
0.6600000000000001
 72
     1
 11
7571618.669169601
 21
5724132.181590907
 31
0.0
100
AcDbText
 73
     1
  0
LINE
  5
1000053
330
15
100
AcDbEntity
  8
ObszarDR10
  6
Continuous
370
    18
100
AcDbLine
 10
7572977.79
 20
5724729.519999999
 30
0.0
 11
7573044.559999998
 21
5724770.0
 31
0.0
  0
LINE
  5
1000054
330
15
100
AcDbEntity
  8
ObszarDR10
  6
Continuous
370
    18
100
AcDbLine
 10
7573044.559999998
 20
5724770.0
 30
0.0
 11
7573074.280000001
 21
5724788.02
 31
0.0
  0
LINE
  5
1000055
330
15
100
AcDbEntity
  8
ObszarDR10
  6
Continuous
370
    18
100
AcDbLine
 10
7573074.280000001
 20
5724788.02
 30
0.0
 11
7573078.129999999
 21
5724790.320000001
 31
0.0
  0
LINE
  5
1000056
330
15
100
AcDbEntity
  8
ObszarDR10
  6
Continuous
370
    18
100
AcDbLine
 10
7573078.129999999
 20
5724790.320000001
 30
0.0
 11
7573082.460000001
 21
5724792.919999999
 31
0.0
  0
LINE
  5
1000057
330
15
100
AcDbEntity
  8
ObszarDR10
  6
Continuous
370
    18
100
AcDbLine
 10
7573082.460000001
 20
5724792.919999999
 30
0.0
 11
7573086.789999999
 21
5724795.519999999
 31
0.0
  0
LINE
  5
1000058
330
15
100
AcDbEntity
  8
ObszarDR10
  6
Continuous
370
    18
100
AcDbLine
 10
7573086.789999999
 20
5724795.519999999
 30
0.0
 11
7573107.48
 21
5724807.929999999
 31
0.0
  0
LINE
  5
1000059
330
15
100
AcDbEntity
  8
ObszarDR10
  6
Continuous
370
    18
100
AcDbLine
 10
7573107.48
 20
5724807.929999999
 30
0.0
 11
7573127.269999998
 21
5724819.81
 31
0.0
  0
LINE
  5
100005A
330
15
100
AcDbEntity
  8
ObszarDR10
  6
Continuous
370
    18
100
AcDbLine
 10
7573127.269999998
 20
5724819.81
 30
0.0
 11
7573165.429999999
 21
5724840.750000001
 31
0.0
  0
LINE
  5
100005B
330
15
100
AcDbEntity
  8
ObszarDR10
  6
Continuous
370
    18
100
AcDbLine
 10
7573165.429999999
 20
5724840.750000001
 30
0.0
 11
7573175.349999999
 21
5724846.2
 31
0.0
  0
LINE
  5
100005C
330
15
100
AcDbEntity
  8
ObszarDR10
  6
Continuous
370
    18
100
AcDbLine
 10
7573175.349999999
 20
5724846.2
 30
0.0
 11
7573248.49
 21
5724890.87
 31
0.0
  0
LINE
  5
100005D
330
15
100
AcDbEntity
  8
ObszarDR10
  6
Continuous
370
    18
100
AcDbLine
 10
7573248.49
 20
5724890.87
 30
0.0
 11
7573281.08
 21
5724910.72
 31
0.0
  0
LINE
  5
100005E
330
15
100
AcDbEntity
  8
ObszarDR10
  6
Continuous
370
    18
100
AcDbLine
 10
7573281.08
 20
5724910.72
 30
0.0
 11
7573329.349999998
 21
5724940.06
 31
0.0
  0
LINE
  5
100005F
330
15
100
AcDbEntity
  8
ObszarDR10
  6
Continuous
370
    18
100
AcDbLine
 10
7573329.349999998
 20
5724940.06
 30
0.0
 11
7573381.16
 21
5724974.31
 31
0.0
  0
LINE
  5
1000060
330
15
100
AcDbEntity
  8
ObszarDR10
  6
Continuous
370
    18
100
AcDbLine
 10
7573381.16
 20
5724974.31
 30
0.0
 11
7573408.03
 21
5724990.599999999
 31
0.0
  0
LINE
  5
1000061
330
15
100
AcDbEntity
  8
ObszarDR10
  6
Continuous
370
    18
100
AcDbLine
 10
7573408.03
 20
5724990.599999999
 30
0.0
 11
7573442.82
 21
5725011.690000001
 31
0.0
  0
LINE
  5
1000062
330
15
100
AcDbEntity
  8
ObszarDR10
  6
Continuous
370
    18
100
AcDbLine
 10
7573442.82
 20
5725011.690000001
 30
0.0
 11
7573459.579999999
 21
5725021.52
 31
0.0
  0
LINE
  5
1000063
330
15
100
AcDbEntity
  8
ObszarDR10
  6
Continuous
370
    18
100
AcDbLine
 10
7573459.579999999
 20
5725021.52
 30
0.0
 11
7573480.65
 21
5725033.879999999
 31
0.0
  0
LINE
  5
1000064
330
15
100
AcDbEntity
  8
ObszarDR10
  6
Continuous
370
    18
100
AcDbLine
 10
7573480.65
 20
5725033.879999999
 30
0.0
 11
7573490.37
 21
5725031.079999999
 31
0.0
  0
LINE
  5
1000065
330
15
100
AcDbEntity
  8
ObszarDR10
  6
Continuous
370
    18
100
AcDbLine
 10
7573490.37
 20
5725031.079999999
 30
0.0
 11
7573475.719999999
 21
5725019.839999999
 31
0.0
  0
LINE
  5
1000066
330
15
100
AcDbEntity
  8
ObszarDR10
  6
Continuous
370
    18
100
AcDbLine
 10
7573475.719999999
 20
5725019.839999999
 30
0.0
 11
7573450.0
 21
5725004.179999999
 31
0.0
  0
LINE
  5
1000067
330
15
100
AcDbEntity
  8
ObszarDR10
  6
Continuous
370
    18
100
AcDbLine
 10
7573450.0
 20
5725004.179999999
 30
0.0
 11
7573390.339999999
 21
5724967.86
 31
0.0
  0
LINE
  5
1000068
330
15
100
AcDbEntity
  8
ObszarDR10
  6
Continuous
370
    18
100
AcDbLine
 10
7573390.339999999
 20
5724967.86
 30
0.0
 11
7573349.209999999
 21
5724942.64
 31
0.0
  0
LINE
  5
1000069
330
15
100
AcDbEntity
  8
ObszarDR10
  6
Continuous
370
    18
100
AcDbLine
 10
7573349.209999999
 20
5724942.64
 30
0.0
 11
7573296.28
 21
5724907.88
 31
0.0
  0
LINE
  5
100006A
330
15
100
AcDbEntity
  8
ObszarDR10
  6
Continuous
370
    18
100
AcDbLine
 10
7573296.28
 20
5724907.88
 30
0.0
 11
7573273.91
 21
5724894.21
 31
0.0
  0
LINE
  5
100006B
330
15
100
AcDbEntity
  8
ObszarDR10
  6
Continuous
370
    18
100
AcDbLine
 10
7573273.91
 20
5724894.21
 30
0.0
 11
7573230.860000001
 21
5724867.9
 31
0.0
  0
LINE
  5
100006C
330
15
100
AcDbEntity
  8
ObszarDR10
  6
Continuous
370
    18
100
AcDbLine
 10
7573230.860000001
 20
5724867.9
 30
0.0
 11
7573210.959999999
 21
5724855.81
 31
0.0
  0
LINE
  5
100006D
330
15
100
AcDbEntity
  8
ObszarDR10
  6
Continuous
370
    18
100
AcDbLine
 10
7573210.959999999
 20
5724855.81
 30
0.0
 11
7573197.949999999
 21
5724847.910000001
 31
0.0
  0
LINE
  5
100006E
330
15
100
AcDbEntity
  8
ObszarDR10
  6
Continuous
370
    18
100
AcDbLine
 10
7573197.949999999
 20
5724847.910000001
 30
0.0
 11
7573192.68
 21
5724844.700000001
 31
0.0
  0
LINE
  5
100006F
330
15
100
AcDbEntity
  8
ObszarDR10
  6
Continuous
370
    18
100
AcDbLine
 10
7573192.68
 20
5724844.700000001
 30
0.0
 11
7573146.690000001
 21
5724816.719999999
 31
0.0
  0
LINE
  5
1000070
330
15
100
AcDbEntity
  8
ObszarDR10
  6
Continuous
370
    18
100
AcDbLine
 10
7573146.690000001
 20
5724816.719999999
 30
0.0
 11
7573125.919999999
 21
5724804.09
 31
0.0
  0
LINE
  5
1000071
330
15
100
AcDbEntity
  8
ObszarDR10
  6
Continuous
370
    18
100
AcDbLine
 10
7573125.919999999
 20
5724804.09
 30
0.0
 11
7573105.159999999
 21
5724791.46
 31
0.0
  0
LINE
  5
1000072
330
15
100
AcDbEntity
  8
ObszarDR10
  6
Continuous
370
    18
100
AcDbLine
 10
7573105.159999999
 20
5724791.46
 30
0.0
 11
7573079.75
 21
5724776.0
 31
0.0
  0
LINE
  5
1000073
330
15
100
AcDbEntity
  8
ObszarDR10
  6
Continuous
370
    18
100
AcDbLine
 10
7573079.75
 20
5724776.0
 30
0.0
 11
7572997.940000001
 21
5724728.29
 31
0.0
  0
LINE
  5
1000074
330
15
100
AcDbEntity
  8
ObszarDR10
  6
Continuous
370
    18
100
AcDbLine
 10
7572997.940000001
 20
5724728.29
 30
0.0
 11
7572942.389999999
 21
5724694.36
 31
0.0
  0
LINE
  5
1000075
330
15
100
AcDbEntity
  8
ObszarDR10
  6
Continuous
370
    18
100
AcDbLine
 10
7572942.389999999
 20
5724694.36
 30
0.0
 11
7572791.11
 21
5724602.080000001
 31
0.0
  0
LINE
  5
1000076
330
15
100
AcDbEntity
  8
ObszarDR10
  6
Continuous
370
    18
100
AcDbLine
 10
7572791.11
 20
5724602.080000001
 30
0.0
 11
7572716.46
 21
5724556.88
 31
0.0
  0
LINE
  5
1000077
330
15
100
AcDbEntity
  8
ObszarDR10
  6
Continuous
370
    18
100
AcDbLine
 10
7572716.46
 20
5724556.88
 30
0.0
 11
7572685.05
 21
5724537.86
 31
0.0
  0
LINE
  5
1000078
330
15
100
AcDbEntity
  8
ObszarDR10
  6
Continuous
370
    18
100
AcDbLine
 10
7572685.05
 20
5724537.86
 30
0.0
 11
7572682.25
 21
5724536.16
 31
0.0
  0
LINE
  5
1000079
330
15
100
AcDbEntity
  8
ObszarDR10
  6
Continuous
370
    18
100
AcDbLine
 10
7572682.25
 20
5724536.16
 30
0.0
 11
7572599.019999999
 21
5724485.78
 31
0.0
  0
LINE
  5
100007A
330
15
100
AcDbEntity
  8
ObszarDR10
  6
Continuous
370
    18
100
AcDbLine
 10
7572599.019999999
 20
5724485.78
 30
0.0
 11
7572469.090000001
 21
5724407.08
 31
0.0
  0
LINE
  5
100007B
330
15
100
AcDbEntity
  8
ObszarDR10
  6
Continuous
370
    18
100
AcDbLine
 10
7572469.090000001
 20
5724407.08
 30
0.0
 11
7572452.09
 21
5724396.740000001
 31
0.0
  0
LINE
  5
100007C
330
15
100
AcDbEntity
  8
ObszarDR10
  6
Continuous
370
    18
100
AcDbLine
 10
7572452.09
 20
5724396.740000001
 30
0.0
 11
7572442.480000001
 21
5724390.900000001
 31
0.0
  0
LINE
  5
100007D
330
15
100
AcDbEntity
  8
ObszarDR10
  6
Continuous
370
    18
100
AcDbLine
 10
7572442.480000001
 20
5724390.900000001
 30
0.0
 11
7572439.619999999
 21
5724389.170000001
 31
0.0
  0
LINE
  5
100007E
330
15
100
AcDbEntity
  8
ObszarDR10
  6
Continuous
370
    18
100
AcDbLine
 10
7572439.619999999
 20
5724389.170000001
 30
0.0
 11
7572200.23
 21
5724243.719999999
 31
0.0
  0
LINE
  5
100007F
330
15
100
AcDbEntity
  8
ObszarDR10
  6
Continuous
370
    18
100
AcDbLine
 10
7572200.23
 20
5724243.719999999
 30
0.0
 11
7572172.610000001
 21
5724227.03
 31
0.0
  0
LINE
  5
1000080
330
15
100
AcDbEntity
  8
ObszarDR10
  6
Continuous
370
    18
100
AcDbLine
 10
7572172.610000001
 20
5724227.03
 30
0.0
 11
7572169.88
 21
5724225.37
 31
0.0
  0
LINE
  5
1000081
330
15
100
AcDbEntity
  8
ObszarDR10
  6
Continuous
370
    18
100
AcDbLine
 10
7572169.88
 20
5724225.37
 30
0.0
 11
7572117.0
 21
5724193.150000001
 31
0.0
  0
LINE
  5
1000082
330
15
100
AcDbEntity
  8
ObszarDR10
  6
Continuous
370
    18
100
AcDbLine
 10
7572117.0
 20
5724193.150000001
 30
0.0
 11
7572097.94
 21
5724181.57
 31
0.0
  0
LINE
  5
1000083
330
15
100
AcDbEntity
  8
ObszarDR10
  6
Continuous
370
    18
100
AcDbLine
 10
7572097.94
 20
5724181.57
 30
0.0
 11
7572049.25
 21
5724151.93
 31
0.0
  0
LINE
  5
1000084
330
15
100
AcDbEntity
  8
ObszarDR10
  6
Continuous
370
    18
100
AcDbLine
 10
7572049.25
 20
5724151.93
 30
0.0
 11
7572016.879999999
 21
5724132.22
 31
0.0
  0
LINE
  5
1000085
330
15
100
AcDbEntity
  8
ObszarDR10
  6
Continuous
370
    18
100
AcDbLine
 10
7572016.879999999
 20
5724132.22
 30
0.0
 11
7571984.33
 21
5724112.41
 31
0.0
  0
LINE
  5
1000086
330
15
100
AcDbEntity
  8
ObszarDR10
  6
Continuous
370
    18
100
AcDbLine
 10
7571984.33
 20
5724112.41
 30
0.0
 11
7571947.09
 21
5724089.740000001
 31
0.0
  0
LINE
  5
1000087
330
15
100
AcDbEntity
  8
ObszarDR10
  6
Continuous
370
    18
100
AcDbLine
 10
7571947.09
 20
5724089.740000001
 30
0.0
 11
7571922.41
 21
5724074.71
 31
0.0
  0
LINE
  5
1000088
330
15
100
AcDbEntity
  8
ObszarDR10
  6
Continuous
370
    18
100
AcDbLine
 10
7571922.41
 20
5724074.71
 30
0.0
 11
7571899.400000001
 21
5724060.88
 31
0.0
  0
LINE
  5
1000089
330
15
100
AcDbEntity
  8
ObszarDR10
  6
Continuous
370
    18
100
AcDbLine
 10
7571899.400000001
 20
5724060.88
 30
0.0
 11
7571872.259999999
 21
5724044.179999999
 31
0.0
  0
LINE
  5
100008A
330
15
100
AcDbEntity
  8
ObszarDR10
  6
Continuous
370
    18
100
AcDbLine
 10
7571872.259999999
 20
5724044.179999999
 30
0.0
 11
7571822.639999999
 21
5724013.990000001
 31
0.0
  0
LINE
  5
100008B
330
15
100
AcDbEntity
  8
ObszarDR10
  6
Continuous
370
    18
100
AcDbLine
 10
7571822.639999999
 20
5724013.990000001
 30
0.0
 11
7571703.88
 21
5723940.77
 31
0.0
  0
LINE
  5
100008C
330
15
100
AcDbEntity
  8
ObszarDR10
  6
Continuous
370
    18
100
AcDbLine
 10
7571703.88
 20
5723940.77
 30
0.0
 11
7571412.539999999
 21
5723761.33
 31
0.0
  0
LINE
  5
100008D
330
15
100
AcDbEntity
  8
ObszarDR10
  6
Continuous
370
    18
100
AcDbLine
 10
7571412.539999999
 20
5723761.33
 30
0.0
 11
7571396.139999999
 21
5723760.63
 31
0.0
  0
LINE
  5
100008E
330
15
100
AcDbEntity
  8
ObszarDR10
  6
Continuous
370
    18
100
AcDbLine
 10
7571396.139999999
 20
5723760.63
 30
0.0
 11
7571408.55
 21
5723768.269999999
 31
0.0
  0
LINE
  5
100008F
330
15
100
AcDbEntity
  8
ObszarDR10
  6
Continuous
370
    18
100
AcDbLine
 10
7571408.55
 20
5723768.269999999
 30
0.0
 11
7571518.23
 21
5723835.75
 31
0.0
  0
LINE
  5
1000090
330
15
100
AcDbEntity
  8
ObszarDR10
  6
Continuous
370
    18
100
AcDbLine
 10
7571518.23
 20
5723835.75
 30
0.0
 11
7571522.269999999
 21
5723838.24
 31
0.0
  0
LINE
  5
1000091
330
15
100
AcDbEntity
  8
ObszarDR10
  6
Continuous
370
    18
100
AcDbLine
 10
7571522.269999999
 20
5723838.24
 30
0.0
 11
7571540.660000001
 21
5723849.549999999
 31
0.0
  0
LINE
  5
1000092
330
15
100
AcDbEntity
  8
ObszarDR10
  6
Continuous
370
    18
100
AcDbLine
 10
7571540.660000001
 20
5723849.549999999
 30
0.0
 11
7571576.7
 21
5723871.719999999
 31
0.0
  0
LINE
  5
1000093
330
15
100
AcDbEntity
  8
ObszarDR10
  6
Continuous
370
    18
100
AcDbLine
 10
7571576.7
 20
5723871.719999999
 30
0.0
 11
7571611.059999999
 21
5723892.870000001
 31
0.0
  0
LINE
  5
1000094
330
15
100
AcDbEntity
  8
ObszarDR10
  6
Continuous
370
    18
100
AcDbLine
 10
7571611.059999999
 20
5723892.870000001
 30
0.0
 11
7571630.869999999
 21
5723905.049999999
 31
0.0
  0
LINE
  5
1000095
330
15
100
AcDbEntity
  8
ObszarDR10
  6
Continuous
370
    18
100
AcDbLine
 10
7571630.869999999
 20
5723905.049999999
 30
0.0
 11
7571658.929999999
 21
5723922.31
 31
0.0
  0
LINE
  5
1000096
330
15
100
AcDbEntity
  8
ObszarDR10
  6
Continuous
370
    18
100
AcDbLine
 10
7571658.929999999
 20
5723922.31
 30
0.0
 11
7571681.55
 21
5723936.23
 31
0.0
  0
LINE
  5
1000097
330
15
100
AcDbEntity
  8
ObszarDR10
  6
Continuous
370
    18
100
AcDbLine
 10
7571681.55
 20
5723936.23
 30
0.0
 11
7571751.599999998
 21
5723979.339999999
 31
0.0
  0
LINE
  5
1000098
330
15
100
AcDbEntity
  8
ObszarDR10
  6
Continuous
370
    18
100
AcDbLine
 10
7571751.599999998
 20
5723979.339999999
 30
0.0
 11
7571822.17
 21
5724022.75
 31
0.0
  0
LINE
  5
1000099
330
15
100
AcDbEntity
  8
ObszarDR10
  6
Continuous
370
    18
100
AcDbLine
 10
7571822.17
 20
5724022.75
 30
0.0
 11
7571858.519999999
 21
5724045.12
 31
0.0
  0
LINE
  5
100009A
330
15
100
AcDbEntity
  8
ObszarDR10
  6
Continuous
370
    18
100
AcDbLine
 10
7571858.519999999
 20
5724045.12
 30
0.0
 11
7571877.809999998
 21
5724056.99
 31
0.0
  0
LINE
  5
100009B
330
15
100
AcDbEntity
  8
ObszarDR10
  6
Continuous
370
    18
100
AcDbLine
 10
7571877.809999998
 20
5724056.99
 30
0.0
 11
7571895.21
 21
5724067.69
 31
0.0
  0
LINE
  5
100009C
330
15
100
AcDbEntity
  8
ObszarDR10
  6
Continuous
370
    18
100
AcDbLine
 10
7571895.21
 20
5724067.69
 30
0.0
 11
7571919.300000001
 21
5724082.339999999
 31
0.0
  0
LINE
  5
100009D
330
15
100
AcDbEntity
  8
ObszarDR10
  6
Continuous
370
    18
100
AcDbLine
 10
7571919.300000001
 20
5724082.339999999
 30
0.0
 11
7571931.440000001
 21
5724089.719999999
 31
0.0
  0
LINE
  5
100009E
330
15
100
AcDbEntity
  8
ObszarDR10
  6
Continuous
370
    18
100
AcDbLine
 10
7571931.440000001
 20
5724089.719999999
 30
0.0
 11
7571949.809999998
 21
5724100.889999999
 31
0.0
  0
LINE
  5
100009F
330
15
100
AcDbEntity
  8
ObszarDR10
  6
Continuous
370
    18
100
AcDbLine
 10
7571949.809999998
 20
5724100.889999999
 30
0.0
 11
7571965.87
 21
5724113.9
 31
0.0
  0
LINE
  5
10000A0
330
15
100
AcDbEntity
  8
ObszarDR10
  6
Continuous
370
    18
100
AcDbLine
 10
7571965.87
 20
5724113.9
 30
0.0
 11
7572002.789999999
 21
5724136.450000001
 31
0.0
  0
LINE
  5
10000A1
330
15
100
AcDbEntity
  8
ObszarDR10
  6
Continuous
370
    18
100
AcDbLine
 10
7572002.789999999
 20
5724136.450000001
 30
0.0
 11
7572039.71
 21
5724159.0
 31
0.0
  0
LINE
  5
10000A2
330
15
100
AcDbEntity
  8
ObszarDR10
  6
Continuous
370
    18
100
AcDbLine
 10
7572039.71
 20
5724159.0
 30
0.0
 11
7572076.62
 21
5724181.549999999
 31
0.0
  0
LINE
  5
10000A3
330
15
100
AcDbEntity
  8
ObszarDR10
  6
Continuous
370
    18
100
AcDbLine
 10
7572076.62
 20
5724181.549999999
 30
0.0
 11
7572113.54
 21
5724204.099999999
 31
0.0
  0
LINE
  5
10000A4
330
15
100
AcDbEntity
  8
ObszarDR10
  6
Continuous
370
    18
100
AcDbLine
 10
7572113.54
 20
5724204.099999999
 30
0.0
 11
7572165.969999998
 21
5724232.35
 31
0.0
  0
LINE
  5
10000A5
330
15
100
AcDbEntity
  8
ObszarDR10
  6
Continuous
370
    18
100
AcDbLine
 10
7572165.969999998
 20
5724232.35
 30
0.0
 11
7572168.529999999
 21
5724233.91
 31
0.0
  0
LINE
  5
10000A6
330
15
100
AcDbEntity
  8
ObszarDR10
  6
Continuous
370
    18
100
AcDbLine
 10
7572168.529999999
 20
5724233.91
 30
0.0
 11
7572193.509999999
 21
5724249.08
 31
0.0
  0
LINE
  5
10000A7
330
15
100
AcDbEntity
  8
ObszarDR10
  6
Continuous
370
    18
100
AcDbLine
 10
7572193.509999999
 20
5724249.08
 30
0.0
 11
7572216.860000001
 21
5724263.259999999
 31
0.0
  0
LINE
  5
10000A8
330
15
100
AcDbEntity
  8
ObszarDR10
  6
Continuous
370
    18
100
AcDbLine
 10
7572216.860000001
 20
5724263.259999999
 30
0.0
 11
7572240.9
 21
5724277.86
 31
0.0
  0
LINE
  5
10000A9
330
15
100
AcDbEntity
  8
ObszarDR10
  6
Continuous
370
    18
100
AcDbLine
 10
7572240.9
 20
5724277.86
 30
0.0
 11
7572265.11
 21
5724292.56
 31
0.0
  0
LINE
  5
10000AA
330
15
100
AcDbEntity
  8
ObszarDR10
  6
Continuous
370
    18
100
AcDbLine
 10
7572265.11
 20
5724292.56
 30
0.0
 11
7572421.259999998
 21
5724387.38
 31
0.0
  0
LINE
  5
10000AB
330
15
100
AcDbEntity
  8
ObszarDR10
  6
Continuous
370
    18
100
AcDbLine
 10
7572421.259999998
 20
5724387.38
 30
0.0
 11
7572423.889999998
 21
5724388.980000001
 31
0.0
  0
LINE
  5
10000AC
330
15
100
AcDbEntity
  8
ObszarDR10
  6
Continuous
370
    18
100
AcDbLine
 10
7572423.889999998
 20
5724388.980000001
 30
0.0
 11
7572438.599999999
 21
5724397.91
 31
0.0
  0
LINE
  5
10000AD
330
15
100
AcDbEntity
  8
ObszarDR10
  6
Continuous
370
    18
100
AcDbLine
 10
7572438.599999999
 20
5724397.91
 30
0.0
 11
7572441.41
 21
5724399.62
 31
0.0
  0
LINE
  5
10000AE
330
15
100
AcDbEntity
  8
ObszarDR10
  6
Continuous
370
    18
100
AcDbLine
 10
7572441.41
 20
5724399.62
 30
0.0
 11
7572479.860000001
 21
5724422.97
 31
0.0
  0
LINE
  5
10000AF
330
15
100
AcDbEntity
  8
ObszarDR10
  6
Continuous
370
    18
100
AcDbLine
 10
7572479.860000001
 20
5724422.97
 30
0.0
 11
7572486.610000001
 21
5724427.07
 31
0.0
  0
LINE
  5
10000B0
330
15
100
AcDbEntity
  8
ObszarDR10
  6
Continuous
370
    18
100
AcDbLine
 10
7572486.610000001
 20
5724427.07
 30
0.0
 11
7572611.78
 21
5724502.86
 31
0.0
  0
LINE
  5
10000B1
330
15
100
AcDbEntity
  8
ObszarDR10
  6
Continuous
370
    18
100
AcDbLine
 10
7572611.78
 20
5724502.86
 30
0.0
 11
7572644.86
 21
5724522.880000001
 31
0.0
  0
LINE
  5
10000B2
330
15
100
AcDbEntity
  8
ObszarDR10
  6
Continuous
370
    18
100
AcDbLine
 10
7572644.86
 20
5724522.880000001
 30
0.0
 11
7572675.099999998
 21
5724541.19
 31
0.0
  0
LINE
  5
10000B3
330
15
100
AcDbEntity
  8
ObszarDR10
  6
Continuous
370
    18
100
AcDbLine
 10
7572675.099999998
 20
5724541.19
 30
0.0
 11
7572677.900000001
 21
5724542.89
 31
0.0
  0
LINE
  5
10000B4
330
15
100
AcDbEntity
  8
ObszarDR10
  6
Continuous
370
    18
100
AcDbLine
 10
7572677.900000001
 20
5724542.89
 30
0.0
 11
7572749.21
 21
5724586.52
 31
0.0
  0
LINE
  5
10000B5
330
15
100
AcDbEntity
  8
ObszarDR10
  6
Continuous
370
    18
100
AcDbLine
 10
7572749.21
 20
5724586.52
 30
0.0
 11
7572789.710000001
 21
5724611.28
 31
0.0
  0
LINE
  5
10000B6
330
15
100
AcDbEntity
  8
ObszarDR10
  6
Continuous
370
    18
100
AcDbLine
 10
7572789.710000001
 20
5724611.28
 30
0.0
 11
7572823.87
 21
5724632.159999999
 31
0.0
  0
LINE
  5
10000B7
330
15
100
AcDbEntity
  8
ObszarDR10
  6
Continuous
370
    18
100
AcDbLine
 10
7572823.87
 20
5724632.159999999
 30
0.0
 11
7572878.94
 21
5724669.589999999
 31
0.0
  0
LINE
  5
10000B8
330
15
100
AcDbEntity
  8
ObszarDR10
  6
Continuous
370
    18
100
AcDbLine
 10
7572878.94
 20
5724669.589999999
 30
0.0
 11
7572952.530000001
 21
5724714.200000001
 31
0.0
  0
LINE
  5
10000B9
330
15
100
AcDbEntity
  8
ObszarDR10
  6
Continuous
370
    18
100
AcDbLine
 10
7572952.530000001
 20
5724714.200000001
 30
0.0
 11
7572977.79
 21
5724729.519999999
 31
0.0
  0
LINE
  5
10000BC
330
15
100
AcDbEntity
  8
ObszarDR10
  6
Continuous
370
    18
100
AcDbLine
 10
7571373.440000001
 20
5724025.039999999
 30
0.0
 11
7571469.0
 21
5723859.589999999
 31
0.0
  0
LINE
  5
10000BD
330
15
100
AcDbEntity
  8
ObszarDR10
  6
Continuous
370
    18
100
AcDbLine
 10
7571469.0
 20
5723859.589999999
 30
0.0
 11
7571518.23
 21
5723835.75
 31
0.0
  0
LINE
  5
10000BE
330
15
100
AcDbEntity
  8
ObszarDR10
  6
Continuous
370
    18
100
AcDbLine
 10
7571518.23
 20
5723835.75
 30
0.0
 11
7571408.55
 21
5723768.269999999
 31
0.0
  0
LINE
  5
10000BF
330
15
100
AcDbEntity
  8
ObszarDR10
  6
Continuous
370
    18
100
AcDbLine
 10
7571408.55
 20
5723768.269999999
 30
0.0
 11
7571377.38
 21
5723822.79
 31
0.0
  0
LINE
  5
10000C0
330
15
100
AcDbEntity
  8
ObszarDR10
  6
Continuous
370
    18
100
AcDbLine
 10
7571377.38
 20
5723822.79
 30
0.0
 11
7571358.139999999
 21
5723856.44
 31
0.0
  0
LINE
  5
10000C1
330
15
100
AcDbEntity
  8
ObszarDR10
  6
Continuous
370
    18
100
AcDbLine
 10
7571358.139999999
 20
5723856.44
 30
0.0
 11
7571302.849999999
 21
5723953.139999999
 31
0.0
  0
LINE
  5
10000C2
330
15
100
AcDbEntity
  8
ObszarDR10
  6
Continuous
370
    18
100
AcDbLine
 10
7571302.849999999
 20
5723953.139999999
 30
0.0
 11
7571301.37
 21
5723955.730000001
 31
0.0
  0
LINE
  5
10000C3
330
15
100
AcDbEntity
  8
ObszarDR10
  6
Continuous
370
    18
100
AcDbLine
 10
7571301.37
 20
5723955.730000001
 30
0.0
 11
7571262.349999999
 21
5724023.969999999
 31
0.0
  0
LINE
  5
10000C4
330
15
100
AcDbEntity
  8
ObszarDR10
  6
Continuous
370
    18
100
AcDbLine
 10
7571262.349999999
 20
5724023.969999999
 30
0.0
 11
7571232.259999999
 21
5724076.59
 31
0.0
  0
LINE
  5
10000C5
330
15
100
AcDbEntity
  8
ObszarDR10
  6
Continuous
370
    18
100
AcDbLine
 10
7571232.259999999
 20
5724076.59
 30
0.0
 11
7571200.4
 21
5724132.320000001
 31
0.0
  0
LINE
  5
10000C6
330
15
100
AcDbEntity
  8
ObszarDR10
  6
Continuous
370
    18
100
AcDbLine
 10
7571200.4
 20
5724132.320000001
 30
0.0
 11
7571235.28
 21
5724152.3
 31
0.0
  0
LINE
  5
10000C7
330
15
100
AcDbEntity
  8
ObszarDR10
  6
Continuous
370
    18
100
AcDbLine
 10
7571235.28
 20
5724152.3
 30
0.0
 11
7571294.219999998
 21
5724052.320000001
 31
0.0
  0
LINE
  5
10000C8
330
15
100
AcDbEntity
  8
ObszarDR10
  6
Continuous
370
    18
100
AcDbLine
 10
7571294.219999998
 20
5724052.320000001
 30
0.0
 11
7571328.410000001
 21
5724077.0
 31
0.0
  0
LINE
  5
10000C9
330
15
100
AcDbEntity
  8
ObszarDR10
  6
Continuous
370
    18
100
AcDbLine
 10
7571328.410000001
 20
5724077.0
 30
0.0
 11
7571360.62
 21
5724017.459999999
 31
0.0
  0
LINE
  5
10000CA
330
15
100
AcDbEntity
  8
ObszarDR10
  6
Continuous
370
    18
100
AcDbLine
 10
7571360.62
 20
5724017.459999999
 30
0.0
 11
7571373.440000001
 21
5724025.039999999
 31
0.0
  0
LINE
  5
10000CB
330
15
100
AcDbEntity
  8
ObszarDR10
  6
Continuous
370
    18
100
AcDbLine
 10
7571872.259999999
 20
5724044.179999999
 30
0.0
 11
7572025.57
 21
5723793.07
 31
0.0
  0
LINE
  5
10000CC
330
15
100
AcDbEntity
  8
ObszarDR10
  6
Continuous
370
    18
100
AcDbLine
 10
7572025.57
 20
5723793.07
 30
0.0
 11
7572021.369999999
 21
5723787.18
 31
0.0
  0
LINE
  5
10000CD
330
15
100
AcDbEntity
  8
ObszarDR10
  6
Continuous
370
    18
100
AcDbLine
 10
7572021.369999999
 20
5723787.18
 30
0.0
 11
7571963.04
 21
5723784.31
 31
0.0
  0
LINE
  5
10000CE
330
15
100
AcDbEntity
  8
ObszarDR10
  6
Continuous
370
    18
100
AcDbLine
 10
7571963.04
 20
5723784.31
 30
0.0
 11
7571822.639999999
 21
5724013.990000001
 31
0.0
  0
LINE
  5
10000CF
330
15
100
AcDbEntity
  8
ObszarDR10
  6
Continuous
370
    18
100
AcDbLine
 10
7571822.639999999
 20
5724013.990000001
 30
0.0
 11
7571872.259999999
 21
5724044.179999999
 31
0.0
  0
LINE
  5
10000D0
330
15
100
AcDbEntity
  8
ObszarDR10
  6
Continuous
370
    18
100
AcDbLine
 10
7571800.87
 20
5723778.07
 30
0.0
 11
7571703.88
 21
5723940.77
 31
0.0
  0
LINE
  5
10000D1
330
15
100
AcDbEntity
  8
ObszarDR10
  6
Continuous
370
    18
100
AcDbLine
 10
7571703.88
 20
5723940.77
 30
0.0
 11
7571822.639999999
 21
5724013.990000001
 31
0.0
  0
LINE
  5
10000D2
330
15
100
AcDbEntity
  8
ObszarDR10
  6
Continuous
370
    18
100
AcDbLine
 10
7571822.639999999
 20
5724013.990000001
 30
0.0
 11
7571963.04
 21
5723784.31
 31
0.0
  0
LINE
  5
10000D3
330
15
100
AcDbEntity
  8
ObszarDR10
  6
Continuous
370
    18
100
AcDbLine
 10
7571963.04
 20
5723784.31
 30
0.0
 11
7571800.87
 21
5723778.07
 31
0.0
  0
LINE
  5
10000D4
330
15
100
AcDbEntity
  8
ObszarDR10
  6
Continuous
370
    18
100
AcDbLine
 10
7572106.009999998
 20
5723904.33
 30
0.0
 11
7571984.33
 21
5724112.41
 31
0.0
  0
LINE
  5
10000D5
330
15
100
AcDbEntity
  8
ObszarDR10
  6
Continuous
370
    18
100
AcDbLine
 10
7571984.33
 20
5724112.41
 30
0.0
 11
7572016.879999999
 21
5724132.22
 31
0.0
  0
LINE
  5
10000D6
330
15
100
AcDbEntity
  8
ObszarDR10
  6
Continuous
370
    18
100
AcDbLine
 10
7572016.879999999
 20
5724132.22
 30
0.0
 11
7572130.09
 21
5723937.53
 31
0.0
  0
LINE
  5
10000D7
330
15
100
AcDbEntity
  8
ObszarDR10
  6
Continuous
370
    18
100
AcDbLine
 10
7572130.09
 20
5723937.53
 30
0.0
 11
7572106.009999998
 21
5723904.33
 31
0.0
  0
LINE
  5
10000D8
330
15
100
AcDbEntity
  8
ObszarDR10
  6
Continuous
370
    18
100
AcDbLine
 10
7572049.25
 20
5724151.93
 30
0.0
 11
7572154.059999999
 21
5723970.57
 31
0.0
  0
LINE
  5
10000D9
330
15
100
AcDbEntity
  8
ObszarDR10
  6
Continuous
370
    18
100
AcDbLine
 10
7572154.059999999
 20
5723970.57
 30
0.0
 11
7572130.09
 21
5723937.53
 31
0.0
  0
LINE
  5
10000DA
330
15
100
AcDbEntity
  8
ObszarDR10
  6
Continuous
370
    18
100
AcDbLine
 10
7572130.09
 20
5723937.53
 30
0.0
 11
7572016.879999999
 21
5724132.22
 31
0.0
  0
LINE
  5
10000DB
330
15
100
AcDbEntity
  8
ObszarDR10
  6
Continuous
370
    18
100
AcDbLine
 10
7572016.879999999
 20
5724132.22
 30
0.0
 11
7572049.25
 21
5724151.93
 31
0.0
  0
LINE
  5
10000DC
330
15
100
AcDbEntity
  8
ObszarDR10
  6
Continuous
370
    18
100
AcDbLine
 10
7572081.360000001
 20
5723870.360000001
 30
0.0
 11
7571947.09
 21
5724089.740000001
 31
0.0
  0
LINE
  5
10000DD
330
15
100
AcDbEntity
  8
ObszarDR10
  6
Continuous
370
    18
100
AcDbLine
 10
7571947.09
 20
5724089.740000001
 30
0.0
 11
7571984.33
 21
5724112.41
 31
0.0
  0
LINE
  5
10000DE
330
15
100
AcDbEntity
  8
ObszarDR10
  6
Continuous
370
    18
100
AcDbLine
 10
7571984.33
 20
5724112.41
 30
0.0
 11
7572106.009999998
 21
5723904.33
 31
0.0
  0
LINE
  5
10000DF
330
15
100
AcDbEntity
  8
ObszarDR10
  6
Continuous
370
    18
100
AcDbLine
 10
7572106.009999998
 20
5723904.33
 30
0.0
 11
7572081.360000001
 21
5723870.360000001
 31
0.0
  0
LINE
  5
10000E0
330
15
100
AcDbEntity
  8
ObszarDR10
  6
Continuous
370
    18
100
AcDbLine
 10
7572062.48
 20
5723844.809999999
 30
0.0
 11
7571922.41
 21
5724074.71
 31
0.0
  0
LINE
  5
10000E1
330
15
100
AcDbEntity
  8
ObszarDR10
  6
Continuous
370
    18
100
AcDbLine
 10
7571922.41
 20
5724074.71
 30
0.0
 11
7571947.09
 21
5724089.740000001
 31
0.0
  0
LINE
  5
10000E2
330
15
100
AcDbEntity
  8
ObszarDR10
  6
Continuous
370
    18
100
AcDbLine
 10
7571947.09
 20
5724089.740000001
 30
0.0
 11
7572081.360000001
 21
5723870.360000001
 31
0.0
  0
LINE
  5
10000E3
330
15
100
AcDbEntity
  8
ObszarDR10
  6
Continuous
370
    18
100
AcDbLine
 10
7572081.360000001
 20
5723870.360000001
 30
0.0
 11
7572062.48
 21
5723844.809999999
 31
0.0
  0
LINE
  5
10000E4
330
15
100
AcDbEntity
  8
ObszarDR10
  6
Continuous
370
    18
100
AcDbLine
 10
7571654.040000001
 20
5724158.03
 30
0.0
 11
7571609.599999999
 21
5724133.169999999
 31
0.0
  0
LINE
  5
10000E5
330
15
100
AcDbEntity
  8
ObszarDR10
  6
Continuous
370
    18
100
AcDbLine
 10
7571609.599999999
 20
5724133.169999999
 30
0.0
 11
7571515.13
 21
5724307.0
 31
0.0
  0
LINE
  5
10000E6
330
15
100
AcDbEntity
  8
ObszarDR10
  6
Continuous
370
    18
100
AcDbLine
 10
7571515.13
 20
5724307.0
 30
0.0
 11
7571564.230000001
 21
5724333.91
 31
0.0
  0
LINE
  5
10000E7
330
15
100
AcDbEntity
  8
ObszarDR10
  6
Continuous
370
    18
100
AcDbLine
 10
7571564.230000001
 20
5724333.91
 30
0.0
 11
7571590.190000001
 21
5724348.72
 31
0.0
  0
LINE
  5
10000E8
330
15
100
AcDbEntity
  8
ObszarDR10
  6
Continuous
370
    18
100
AcDbLine
 10
7571590.190000001
 20
5724348.72
 30
0.0
 11
7571678.209999999
 21
5724171.55
 31
0.0
  0
LINE
  5
10000E9
330
15
100
AcDbEntity
  8
ObszarDR10
  6
Continuous
370
    18
100
AcDbLine
 10
7571678.209999999
 20
5724171.55
 30
0.0
 11
7571654.040000001
 21
5724158.03
 31
0.0
  0
LINE
  5
10000EA
330
15
100
AcDbEntity
  8
ObszarDR10
  6
Continuous
370
    18
100
AcDbLine
 10
7571592.99
 20
5724123.879999999
 30
0.0
 11
7571498.110000001
 21
5724297.669999999
 31
0.0
  0
LINE
  5
10000EB
330
15
100
AcDbEntity
  8
ObszarDR10
  6
Continuous
370
    18
100
AcDbLine
 10
7571498.110000001
 20
5724297.669999999
 30
0.0
 11
7571515.13
 21
5724307.0
 31
0.0
  0
LINE
  5
10000EC
330
15
100
AcDbEntity
  8
ObszarDR10
  6
Continuous
370
    18
100
AcDbLine
 10
7571515.13
 20
5724307.0
 30
0.0
 11
7571609.599999999
 21
5724133.169999999
 31
0.0
  0
LINE
  5
10000ED
330
15
100
AcDbEntity
  8
ObszarDR10
  6
Continuous
370
    18
100
AcDbLine
 10
7571609.599999999
 20
5724133.169999999
 30
0.0
 11
7571592.99
 21
5724123.879999999
 31
0.0
  0
LINE
  5
10000EE
330
15
100
AcDbEntity
  8
ObszarDR10
  6
Continuous
370
    18
100
AcDbLine
 10
7571582.21
 20
5724117.849999999
 30
0.0
 11
7571592.99
 21
5724123.879999999
 31
0.0
  0
LINE
  5
10000EF
330
15
100
AcDbEntity
  8
ObszarDR10
  6
Continuous
370
    18
100
AcDbLine
 10
7571592.99
 20
5724123.879999999
 30
0.0
 11
7571609.599999999
 21
5724133.169999999
 31
0.0
  0
LINE
  5
10000F0
330
15
100
AcDbEntity
  8
ObszarDR10
  6
Continuous
370
    18
100
AcDbLine
 10
7571609.599999999
 20
5724133.169999999
 30
0.0
 11
7571654.040000001
 21
5724158.03
 31
0.0
  0
LINE
  5
10000F1
330
15
100
AcDbEntity
  8
ObszarDR10
  6
Continuous
370
    18
100
AcDbLine
 10
7571654.040000001
 20
5724158.03
 30
0.0
 11
7571751.599999998
 21
5723979.339999999
 31
0.0
  0
LINE
  5
10000F2
330
15
100
AcDbEntity
  8
ObszarDR10
  6
Continuous
370
    18
100
AcDbLine
 10
7571751.599999998
 20
5723979.339999999
 30
0.0
 11
7571681.55
 21
5723936.23
 31
0.0
  0
LINE
  5
10000F3
330
15
100
AcDbEntity
  8
ObszarDR10
  6
Continuous
370
    18
100
AcDbLine
 10
7571681.55
 20
5723936.23
 30
0.0
 11
7571582.21
 21
5724117.849999999
 31
0.0
  0
LINE
  5
10000F4
330
15
100
AcDbEntity
  8
ObszarDR10
  6
Continuous
370
    18
100
AcDbLine
 10
7571630.869999999
 20
5723905.049999999
 30
0.0
 11
7571435.34
 21
5724263.18
 31
0.0
  0
LINE
  5
10000F5
330
15
100
AcDbEntity
  8
ObszarDR10
  6
Continuous
370
    18
100
AcDbLine
 10
7571435.34
 20
5724263.18
 30
0.0
 11
7571466.08
 21
5724280.28
 31
0.0
  0
LINE
  5
10000F6
330
15
100
AcDbEntity
  8
ObszarDR10
  6
Continuous
370
    18
100
AcDbLine
 10
7571466.08
 20
5724280.28
 30
0.0
 11
7571658.929999999
 21
5723922.31
 31
0.0
  0
LINE
  5
10000F7
330
15
100
AcDbEntity
  8
ObszarDR10
  6
Continuous
370
    18
100
AcDbLine
 10
7571658.929999999
 20
5723922.31
 30
0.0
 11
7571630.869999999
 21
5723905.049999999
 31
0.0
  0
LINE
  5
10000F8
330
15
100
AcDbEntity
  8
ObszarDR10
  6
Continuous
370
    18
100
AcDbLine
 10
7571487.199999999
 20
5724291.57
 30
0.0
 11
7571582.21
 21
5724117.849999999
 31
0.0
  0
LINE
  5
10000F9
330
15
100
AcDbEntity
  8
ObszarDR10
  6
Continuous
370
    18
100
AcDbLine
 10
7571582.21
 20
5724117.849999999
 30
0.0
 11
7571681.55
 21
5723936.23
 31
0.0
  0
LINE
  5
10000FA
330
15
100
AcDbEntity
  8
ObszarDR10
  6
Continuous
370
    18
100
AcDbLine
 10
7571681.55
 20
5723936.23
 30
0.0
 11
7571658.929999999
 21
5723922.31
 31
0.0
  0
LINE
  5
10000FB
330
15
100
AcDbEntity
  8
ObszarDR10
  6
Continuous
370
    18
100
AcDbLine
 10
7571658.929999999
 20
5723922.31
 30
0.0
 11
7571466.08
 21
5724280.28
 31
0.0
  0
LINE
  5
10000FC
330
15
100
AcDbEntity
  8
ObszarDR10
  6
Continuous
370
    18
100
AcDbLine
 10
7571466.08
 20
5724280.28
 30
0.0
 11
7571487.199999999
 21
5724291.57
 31
0.0
  0
LINE
  5
10000FD
330
15
100
AcDbEntity
  8
ObszarDR10
  6
Continuous
370
    18
100
AcDbLine
 10
7571461.11
 20
5724167.22
 30
0.0
 11
7571414.910000001
 21
5724251.82
 31
0.0
  0
LINE
  5
10000FE
330
15
100
AcDbEntity
  8
ObszarDR10
  6
Continuous
370
    18
100
AcDbLine
 10
7571414.910000001
 20
5724251.82
 30
0.0
 11
7571435.34
 21
5724263.18
 31
0.0
  0
LINE
  5
10000FF
330
15
100
AcDbEntity
  8
ObszarDR10
  6
Continuous
370
    18
100
AcDbLine
 10
7571435.34
 20
5724263.18
 30
0.0
 11
7571630.869999999
 21
5723905.049999999
 31
0.0
  0
LINE
  5
1000100
330
15
100
AcDbEntity
  8
ObszarDR10
  6
Continuous
370
    18
100
AcDbLine
 10
7571630.869999999
 20
5723905.049999999
 30
0.0
 11
7571611.059999999
 21
5723892.870000001
 31
0.0
  0
LINE
  5
1000101
330
15
100
AcDbEntity
  8
ObszarDR10
  6
Continuous
370
    18
100
AcDbLine
 10
7571611.059999999
 20
5723892.870000001
 30
0.0
 11
7571461.11
 21
5724167.22
 31
0.0
  0
LINE
  5
1000102
330
15
100
AcDbEntity
  8
ObszarDR10
  6
Continuous
370
    18
100
AcDbLine
 10
7571412.539999999
 20
5723761.33
 30
0.0
 11
7571703.88
 21
5723940.77
 31
0.0
  0
LINE
  5
1000103
330
15
100
AcDbEntity
  8
ObszarDR10
  6
Continuous
370
    18
100
AcDbLine
 10
7571703.88
 20
5723940.77
 30
0.0
 11
7571800.87
 21
5723778.07
 31
0.0
  0
LINE
  5
1000104
330
15
100
AcDbEntity
  8
ObszarDR10
  6
Continuous
370
    18
100
AcDbLine
 10
7571800.87
 20
5723778.07
 30
0.0
 11
7571780.570000001
 21
5723777.219999999
 31
0.0
  0
LINE
  5
1000105
330
15
100
AcDbEntity
  8
ObszarDR10
  6
Continuous
370
    18
100
AcDbLine
 10
7571780.570000001
 20
5723777.219999999
 30
0.0
 11
7571587.749999999
 21
5723769.530000001
 31
0.0
  0
LINE
  5
1000106
330
15
100
AcDbEntity
  8
ObszarDR10
  6
Continuous
370
    18
100
AcDbLine
 10
7571587.749999999
 20
5723769.530000001
 30
0.0
 11
7571453.309999999
 21
5723762.809999999
 31
0.0
  0
LINE
  5
1000107
330
15
100
AcDbEntity
  8
ObszarDR10
  6
Continuous
370
    18
100
AcDbLine
 10
7571453.309999999
 20
5723762.809999999
 30
0.0
 11
7571412.539999999
 21
5723761.33
 31
0.0
  0
LINE
  5
1000108
330
15
100
AcDbEntity
  8
ObszarDR10
  6
Continuous
370
    18
100
AcDbLine
 10
7571725.69
 20
5724198.110000001
 30
0.0
 11
7571678.209999999
 21
5724171.55
 31
0.0
  0
LINE
  5
1000109
330
15
100
AcDbEntity
  8
ObszarDR10
  6
Continuous
370
    18
100
AcDbLine
 10
7571678.209999999
 20
5724171.55
 30
0.0
 11
7571590.190000001
 21
5724348.72
 31
0.0
  0
LINE
  5
100010A
330
15
100
AcDbEntity
  8
ObszarDR10
  6
Continuous
370
    18
100
AcDbLine
 10
7571590.190000001
 20
5724348.72
 30
0.0
 11
7571630.240000001
 21
5724371.58
 31
0.0
  0
LINE
  5
100010B
330
15
100
AcDbEntity
  8
ObszarDR10
  6
Continuous
370
    18
100
AcDbLine
 10
7571630.240000001
 20
5724371.58
 30
0.0
 11
7571725.69
 21
5724198.110000001
 31
0.0
  0
LINE
  5
100010C
330
15
100
AcDbEntity
  8
ObszarDR10
  6
Continuous
370
    18
100
AcDbLine
 10
7571540.660000001
 20
5723849.549999999
 30
0.0
 11
7571467.950000001
 21
5723981.66
 31
0.0
  0
LINE
  5
100010D
330
15
100
AcDbEntity
  8
ObszarDR10
  6
Continuous
370
    18
100
AcDbLine
 10
7571467.950000001
 20
5723981.66
 30
0.0
 11
7571426.719999999
 21
5724056.56
 31
0.0
  0
LINE
  5
100010E
330
15
100
AcDbEntity
  8
ObszarDR10
  6
Continuous
370
    18
100
AcDbLine
 10
7571426.719999999
 20
5724056.56
 30
0.0
 11
7571393.35
 21
5724117.19
 31
0.0
  0
LINE
  5
100010F
330
15
100
AcDbEntity
  8
ObszarDR10
  6
Continuous
370
    18
100
AcDbLine
 10
7571393.35
 20
5724117.19
 30
0.0
 11
7571427.309999998
 21
5724142.259999999
 31
0.0
  0
LINE
  5
1000110
330
15
100
AcDbEntity
  8
ObszarDR10
  6
Continuous
370
    18
100
AcDbLine
 10
7571427.309999998
 20
5724142.259999999
 30
0.0
 11
7571576.7
 21
5723871.719999999
 31
0.0
  0
LINE
  5
1000111
330
15
100
AcDbEntity
  8
ObszarDR10
  6
Continuous
370
    18
100
AcDbLine
 10
7571576.7
 20
5723871.719999999
 30
0.0
 11
7571540.660000001
 21
5723849.549999999
 31
0.0
  0
LINE
  5
1000112
330
15
100
AcDbEntity
  8
ObszarDR10
  6
Continuous
370
    18
100
AcDbLine
 10
7571427.309999998
 20
5724142.259999999
 30
0.0
 11
7571461.11
 21
5724167.22
 31
0.0
  0
LINE
  5
1000113
330
15
100
AcDbEntity
  8
ObszarDR10
  6
Continuous
370
    18
100
AcDbLine
 10
7571461.11
 20
5724167.22
 30
0.0
 11
7571611.059999999
 21
5723892.870000001
 31
0.0
  0
LINE
  5
1000114
330
15
100
AcDbEntity
  8
ObszarDR10
  6
Continuous
370
    18
100
AcDbLine
 10
7571611.059999999
 20
5723892.870000001
 30
0.0
 11
7571576.7
 21
5723871.719999999
 31
0.0
  0
LINE
  5
1000115
330
15
100
AcDbEntity
  8
ObszarDR10
  6
Continuous
370
    18
100
AcDbLine
 10
7571576.7
 20
5723871.719999999
 30
0.0
 11
7571427.309999998
 21
5724142.259999999
 31
0.0
  0
LINE
  5
1000116
330
15
100
AcDbEntity
  8
ObszarDR10
  6
Continuous
370
    18
100
AcDbLine
 10
7571387.910000001
 20
5724127.08
 30
0.0
 11
7571341.469999999
 21
5724211.45
 31
0.0
  0
LINE
  5
1000117
330
15
100
AcDbEntity
  8
ObszarDR10
  6
Continuous
370
    18
100
AcDbLine
 10
7571341.469999999
 20
5724211.45
 30
0.0
 11
7571414.910000001
 21
5724251.82
 31
0.0
  0
LINE
  5
1000118
330
15
100
AcDbEntity
  8
ObszarDR10
  6
Continuous
370
    18
100
AcDbLine
 10
7571414.910000001
 20
5724251.82
 30
0.0
 11
7571461.11
 21
5724167.22
 31
0.0
  0
LINE
  5
1000119
330
15
100
AcDbEntity
  8
ObszarDR10
  6
Continuous
370
    18
100
AcDbLine
 10
7571461.11
 20
5724167.22
 30
0.0
 11
7571427.309999998
 21
5724142.259999999
 31
0.0
  0
LINE
  5
100011A
330
15
100
AcDbEntity
  8
ObszarDR10
  6
Continuous
370
    18
100
AcDbLine
 10
7571427.309999998
 20
5724142.259999999
 30
0.0
 11
7571393.35
 21
5724117.19
 31
0.0
  0
LINE
  5
100011B
330
15
100
AcDbEntity
  8
ObszarDR10
  6
Continuous
370
    18
100
AcDbLine
 10
7571393.35
 20
5724117.19
 30
0.0
 11
7571387.910000001
 21
5724127.08
 31
0.0
  0
LINE
  5
100011C
330
15
100
AcDbEntity
  8
ObszarDR10
  6
Continuous
370
    18
100
AcDbLine
 10
7571426.719999999
 20
5724056.56
 30
0.0
 11
7571373.440000001
 21
5724025.039999999
 31
0.0
  0
LINE
  5
100011D
330
15
100
AcDbEntity
  8
ObszarDR10
  6
Continuous
370
    18
100
AcDbLine
 10
7571373.440000001
 20
5724025.039999999
 30
0.0
 11
7571360.62
 21
5724017.459999999
 31
0.0
  0
LINE
  5
100011E
330
15
100
AcDbEntity
  8
ObszarDR10
  6
Continuous
370
    18
100
AcDbLine
 10
7571360.62
 20
5724017.459999999
 30
0.0
 11
7571328.410000001
 21
5724077.0
 31
0.0
  0
LINE
  5
100011F
330
15
100
AcDbEntity
  8
ObszarDR10
  6
Continuous
370
    18
100
AcDbLine
 10
7571328.410000001
 20
5724077.0
 30
0.0
 11
7571333.580000001
 21
5724092.39
 31
0.0
  0
LINE
  5
1000120
330
15
100
AcDbEntity
  8
ObszarDR10
  6
Continuous
370
    18
100
AcDbLine
 10
7571333.580000001
 20
5724092.39
 30
0.0
 11
7571387.910000001
 21
5724127.08
 31
0.0
  0
LINE
  5
1000121
330
15
100
AcDbEntity
  8
ObszarDR10
  6
Continuous
370
    18
100
AcDbLine
 10
7571387.910000001
 20
5724127.08
 30
0.0
 11
7571393.35
 21
5724117.19
 31
0.0
  0
LINE
  5
1000122
330
15
100
AcDbEntity
  8
ObszarDR10
  6
Continuous
370
    18
100
AcDbLine
 10
7571393.35
 20
5724117.19
 30
0.0
 11
7571426.719999999
 21
5724056.56
 31
0.0
  0
LINE
  5
1000123
330
15
100
AcDbEntity
  8
ObszarDR10
  6
Continuous
370
    18
100
AcDbLine
 10
7571858.519999999
 20
5724045.12
 30
0.0
 11
7571667.58
 21
5724392.9
 31
0.0
  0
LINE
  5
1000124
330
15
100
AcDbEntity
  8
ObszarDR10
  6
Continuous
370
    18
100
AcDbLine
 10
7571667.58
 20
5724392.9
 30
0.0
 11
7571686.599999999
 21
5724403.75
 31
0.0
  0
LINE
  5
1000125
330
15
100
AcDbEntity
  8
ObszarDR10
  6
Continuous
370
    18
100
AcDbLine
 10
7571686.599999999
 20
5724403.75
 30
0.0
 11
7571877.809999998
 21
5724056.99
 31
0.0
  0
LINE
  5
1000126
330
15
100
AcDbEntity
  8
ObszarDR10
  6
Continuous
370
    18
100
AcDbLine
 10
7571877.809999998
 20
5724056.99
 30
0.0
 11
7571858.519999999
 21
5724045.12
 31
0.0
  0
LINE
  5
1000127
330
15
100
AcDbEntity
  8
ObszarDR10
  6
Continuous
370
    18
100
AcDbLine
 10
7571704.93
 20
5724414.209999999
 30
0.0
 11
7571895.21
 21
5724067.69
 31
0.0
  0
LINE
  5
1000128
330
15
100
AcDbEntity
  8
ObszarDR10
  6
Continuous
370
    18
100
AcDbLine
 10
7571895.21
 20
5724067.69
 30
0.0
 11
7571877.809999998
 21
5724056.99
 31
0.0
  0
LINE
  5
1000129
330
15
100
AcDbEntity
  8
ObszarDR10
  6
Continuous
370
    18
100
AcDbLine
 10
7571877.809999998
 20
5724056.99
 30
0.0
 11
7571686.599999999
 21
5724403.75
 31
0.0
  0
LINE
  5
100012A
330
15
100
AcDbEntity
  8
ObszarDR10
  6
Continuous
370
    18
100
AcDbLine
 10
7571686.599999999
 20
5724403.75
 30
0.0
 11
7571704.93
 21
5724414.209999999
 31
0.0
  0
LINE
  5
100012B
330
15
100
AcDbEntity
  8
ObszarDR10
  6
Continuous
370
    18
100
AcDbLine
 10
7572062.48
 20
5723844.809999999
 30
0.0
 11
7572025.57
 21
5723793.07
 31
0.0
  0
LINE
  5
100012C
330
15
100
AcDbEntity
  8
ObszarDR10
  6
Continuous
370
    18
100
AcDbLine
 10
7572025.57
 20
5723793.07
 30
0.0
 11
7571872.259999999
 21
5724044.179999999
 31
0.0
  0
LINE
  5
100012D
330
15
100
AcDbEntity
  8
ObszarDR10
  6
Continuous
370
    18
100
AcDbLine
 10
7571872.259999999
 20
5724044.179999999
 30
0.0
 11
7571899.400000001
 21
5724060.88
 31
0.0
  0
LINE
  5
100012E
330
15
100
AcDbEntity
  8
ObszarDR10
  6
Continuous
370
    18
100
AcDbLine
 10
7571899.400000001
 20
5724060.88
 30
0.0
 11
7571922.41
 21
5724074.71
 31
0.0
  0
LINE
  5
100012F
330
15
100
AcDbEntity
  8
ObszarDR10
  6
Continuous
370
    18
100
AcDbLine
 10
7571922.41
 20
5724074.71
 30
0.0
 11
7572062.48
 21
5723844.809999999
 31
0.0
  0
LINE
  5
1000130
330
15
100
AcDbEntity
  8
ObszarDR10
  6
Continuous
370
    18
100
AcDbLine
 10
7571822.17
 20
5724022.75
 30
0.0
 11
7571725.69
 21
5724198.110000001
 31
0.0
  0
LINE
  5
1000131
330
15
100
AcDbEntity
  8
ObszarDR10
  6
Continuous
370
    18
100
AcDbLine
 10
7571725.69
 20
5724198.110000001
 30
0.0
 11
7571630.240000001
 21
5724371.58
 31
0.0
  0
LINE
  5
1000132
330
15
100
AcDbEntity
  8
ObszarDR10
  6
Continuous
370
    18
100
AcDbLine
 10
7571630.240000001
 20
5724371.58
 30
0.0
 11
7571667.58
 21
5724392.9
 31
0.0
  0
LINE
  5
1000133
330
15
100
AcDbEntity
  8
ObszarDR10
  6
Continuous
370
    18
100
AcDbLine
 10
7571667.58
 20
5724392.9
 30
0.0
 11
7571858.519999999
 21
5724045.12
 31
0.0
  0
LINE
  5
1000134
330
15
100
AcDbEntity
  8
ObszarDR10
  6
Continuous
370
    18
100
AcDbLine
 10
7571858.519999999
 20
5724045.12
 30
0.0
 11
7571822.17
 21
5724022.75
 31
0.0
  0
LINE
  5
1000135
330
15
100
AcDbEntity
  8
ObszarDR10
  6
Continuous
370
    18
100
AcDbLine
 10
7571931.440000001
 20
5724089.719999999
 30
0.0
 11
7571742.36
 21
5724435.58
 31
0.0
  0
LINE
  5
1000136
330
15
100
AcDbEntity
  8
ObszarDR10
  6
Continuous
370
    18
100
AcDbLine
 10
7571742.36
 20
5724435.58
 30
0.0
 11
7571760.679999998
 21
5724446.04
 31
0.0
  0
LINE
  5
1000137
330
15
100
AcDbEntity
  8
ObszarDR10
  6
Continuous
370
    18
100
AcDbLine
 10
7571760.679999998
 20
5724446.04
 30
0.0
 11
7571949.809999998
 21
5724100.889999999
 31
0.0
  0
LINE
  5
1000138
330
15
100
AcDbEntity
  8
ObszarDR10
  6
Continuous
370
    18
100
AcDbLine
 10
7571949.809999998
 20
5724100.889999999
 30
0.0
 11
7571931.440000001
 21
5724089.719999999
 31
0.0
  0
LINE
  5
1000139
330
15
100
AcDbEntity
  8
ObszarDR10
  6
Continuous
370
    18
100
AcDbLine
 10
7571779.160000001
 20
5724456.58
 30
0.0
 11
7571965.87
 21
5724113.9
 31
0.0
  0
LINE
  5
100013A
330
15
100
AcDbEntity
  8
ObszarDR10
  6
Continuous
370
    18
100
AcDbLine
 10
7571965.87
 20
5724113.9
 30
0.0
 11
7571949.809999998
 21
5724100.889999999
 31
0.0
  0
LINE
  5
100013B
330
15
100
AcDbEntity
  8
ObszarDR10
  6
Continuous
370
    18
100
AcDbLine
 10
7571949.809999998
 20
5724100.889999999
 30
0.0
 11
7571760.679999998
 21
5724446.04
 31
0.0
  0
LINE
  5
100013C
330
15
100
AcDbEntity
  8
ObszarDR10
  6
Continuous
370
    18
100
AcDbLine
 10
7571760.679999998
 20
5724446.04
 30
0.0
 11
7571779.160000001
 21
5724456.58
 31
0.0
  0
LINE
  5
100013D
330
15
100
AcDbEntity
  8
ObszarDR10
  6
Continuous
370
    18
100
AcDbLine
 10
7571729.679999999
 20
5724428.340000001
 30
0.0
 11
7571919.300000001
 21
5724082.339999999
 31
0.0
  0
LINE
  5
100013E
330
15
100
AcDbEntity
  8
ObszarDR10
  6
Continuous
370
    18
100
AcDbLine
 10
7571919.300000001
 20
5724082.339999999
 30
0.0
 11
7571895.21
 21
5724067.69
 31
0.0
  0
LINE
  5
100013F
330
15
100
AcDbEntity
  8
ObszarDR10
  6
Continuous
370
    18
100
AcDbLine
 10
7571895.21
 20
5724067.69
 30
0.0
 11
7571704.93
 21
5724414.209999999
 31
0.0
  0
LINE
  5
1000140
330
15
100
AcDbEntity
  8
ObszarDR10
  6
Continuous
370
    18
100
AcDbLine
 10
7571704.93
 20
5724414.209999999
 30
0.0
 11
7571729.679999999
 21
5724428.340000001
 31
0.0
  0
LINE
  5
1000141
330
15
100
AcDbEntity
  8
ObszarDR10
  6
Continuous
370
    18
100
AcDbLine
 10
7571729.679999999
 20
5724428.340000001
 30
0.0
 11
7571742.36
 21
5724435.58
 31
0.0
  0
LINE
  5
1000142
330
15
100
AcDbEntity
  8
ObszarDR10
  6
Continuous
370
    18
100
AcDbLine
 10
7571742.36
 20
5724435.58
 30
0.0
 11
7571931.440000001
 21
5724089.719999999
 31
0.0
  0
LINE
  5
1000143
330
15
100
AcDbEntity
  8
ObszarDR10
  6
Continuous
370
    18
100
AcDbLine
 10
7571931.440000001
 20
5724089.719999999
 30
0.0
 11
7571919.300000001
 21
5724082.339999999
 31
0.0
  0
LINE
  5
1000144
330
15
100
AcDbEntity
  8
ObszarDR10
  6
Continuous
370
    18
100
AcDbLine
 10
7571919.300000001
 20
5724082.339999999
 30
0.0
 11
7571729.679999999
 21
5724428.340000001
 31
0.0
  0
LINE
  5
1000145
330
15
100
AcDbEntity
  8
ObszarDR10
  6
Continuous
370
    18
100
AcDbLine
 10
7571387.910000001
 20
5724127.08
 30
0.0
 11
7571333.580000001
 21
5724092.39
 31
0.0
  0
LINE
  5
1000146
330
15
100
AcDbEntity
  8
ObszarDR10
  6
Continuous
370
    18
100
AcDbLine
 10
7571333.580000001
 20
5724092.39
 30
0.0
 11
7571328.410000001
 21
5724077.0
 31
0.0
  0
LINE
  5
1000147
330
15
100
AcDbEntity
  8
ObszarDR10
  6
Continuous
370
    18
100
AcDbLine
 10
7571328.410000001
 20
5724077.0
 30
0.0
 11
7571294.219999998
 21
5724052.320000001
 31
0.0
  0
LINE
  5
1000148
330
15
100
AcDbEntity
  8
ObszarDR10
  6
Continuous
370
    18
100
AcDbLine
 10
7571294.219999998
 20
5724052.320000001
 30
0.0
 11
7571235.28
 21
5724152.3
 31
0.0
  0
LINE
  5
1000149
330
15
100
AcDbEntity
  8
ObszarDR10
  6
Continuous
370
    18
100
AcDbLine
 10
7571235.28
 20
5724152.3
 30
0.0
 11
7571268.65
 21
5724171.41
 31
0.0
  0
LINE
  5
100014A
330
15
100
AcDbEntity
  8
ObszarDR10
  6
Continuous
370
    18
100
AcDbLine
 10
7571268.65
 20
5724171.41
 30
0.0
 11
7571341.469999999
 21
5724211.45
 31
0.0
  0
LINE
  5
100014B
330
15
100
AcDbEntity
  8
ObszarDR10
  6
Continuous
370
    18
100
AcDbLine
 10
7571341.469999999
 20
5724211.45
 30
0.0
 11
7571387.910000001
 21
5724127.08
 31
0.0
  0
LINE
  5
100014C
330
15
100
AcDbEntity
  8
ObszarDR10
  6
Continuous
370
    18
100
AcDbLine
 10
7571467.950000001
 20
5723981.66
 30
0.0
 11
7571442.059999999
 21
5723970.77
 31
0.0
  0
LINE
  5
100014D
330
15
100
AcDbEntity
  8
ObszarDR10
  6
Continuous
370
    18
100
AcDbLine
 10
7571442.059999999
 20
5723970.77
 30
0.0
 11
7571416.660000001
 21
5723960.09
 31
0.0
  0
LINE
  5
100014E
330
15
100
AcDbEntity
  8
ObszarDR10
  6
Continuous
370
    18
100
AcDbLine
 10
7571416.660000001
 20
5723960.09
 30
0.0
 11
7571471.87
 21
5723862.64
 31
0.0
  0
LINE
  5
100014F
330
15
100
AcDbEntity
  8
ObszarDR10
  6
Continuous
370
    18
100
AcDbLine
 10
7571471.87
 20
5723862.64
 30
0.0
 11
7571510.769999998
 21
5723843.809999999
 31
0.0
  0
LINE
  5
1000150
330
15
100
AcDbEntity
  8
ObszarDR10
  6
Continuous
370
    18
100
AcDbLine
 10
7571510.769999998
 20
5723843.809999999
 30
0.0
 11
7571522.269999999
 21
5723838.24
 31
0.0
  0
LINE
  5
1000151
330
15
100
AcDbEntity
  8
ObszarDR10
  6
Continuous
370
    18
100
AcDbLine
 10
7571522.269999999
 20
5723838.24
 30
0.0
 11
7571518.23
 21
5723835.75
 31
0.0
  0
LINE
  5
1000152
330
15
100
AcDbEntity
  8
ObszarDR10
  6
Continuous
370
    18
100
AcDbLine
 10
7571518.23
 20
5723835.75
 30
0.0
 11
7571469.0
 21
5723859.589999999
 31
0.0
  0
LINE
  5
1000153
330
15
100
AcDbEntity
  8
ObszarDR10
  6
Continuous
370
    18
100
AcDbLine
 10
7571469.0
 20
5723859.589999999
 30
0.0
 11
7571373.440000001
 21
5724025.039999999
 31
0.0
  0
LINE
  5
1000154
330
15
100
AcDbEntity
  8
ObszarDR10
  6
Continuous
370
    18
100
AcDbLine
 10
7571373.440000001
 20
5724025.039999999
 30
0.0
 11
7571426.719999999
 21
5724056.56
 31
0.0
  0
LINE
  5
1000155
330
15
100
AcDbEntity
  8
ObszarDR10
  6
Continuous
370
    18
100
AcDbLine
 10
7571426.719999999
 20
5724056.56
 30
0.0
 11
7571467.950000001
 21
5723981.66
 31
0.0
  0
LINE
  5
1000156
330
15
100
AcDbEntity
  8
ObszarDR10
  6
Continuous
370
    18
100
AcDbLine
 10
7571442.059999999
 20
5723970.77
 30
0.0
 11
7571510.769999998
 21
5723843.809999999
 31
0.0
  0
LINE
  5
1000157
330
15
100
AcDbEntity
  8
ObszarDR10
  6
Continuous
370
    18
100
AcDbLine
 10
7571510.769999998
 20
5723843.809999999
 30
0.0
 11
7571471.87
 21
5723862.64
 31
0.0
  0
LINE
  5
1000158
330
15
100
AcDbEntity
  8
ObszarDR10
  6
Continuous
370
    18
100
AcDbLine
 10
7571471.87
 20
5723862.64
 30
0.0
 11
7571416.660000001
 21
5723960.09
 31
0.0
  0
LINE
  5
1000159
330
15
100
AcDbEntity
  8
ObszarDR10
  6
Continuous
370
    18
100
AcDbLine
 10
7571416.660000001
 20
5723960.09
 30
0.0
 11
7571442.059999999
 21
5723970.77
 31
0.0
  0
LINE
  5
100015A
330
15
100
AcDbEntity
  8
ObszarDR10
  6
Continuous
370
    18
100
AcDbLine
 10
7571540.660000001
 20
5723849.549999999
 30
0.0
 11
7571522.269999999
 21
5723838.24
 31
0.0
  0
LINE
  5
100015B
330
15
100
AcDbEntity
  8
ObszarDR10
  6
Continuous
370
    18
100
AcDbLine
 10
7571522.269999999
 20
5723838.24
 30
0.0
 11
7571510.769999998
 21
5723843.809999999
 31
0.0
  0
LINE
  5
100015C
330
15
100
AcDbEntity
  8
ObszarDR10
  6
Continuous
370
    18
100
AcDbLine
 10
7571510.769999998
 20
5723843.809999999
 30
0.0
 11
7571442.059999999
 21
5723970.77
 31
0.0
  0
LINE
  5
100015D
330
15
100
AcDbEntity
  8
ObszarDR10
  6
Continuous
370
    18
100
AcDbLine
 10
7571442.059999999
 20
5723970.77
 30
0.0
 11
7571467.950000001
 21
5723981.66
 31
0.0
  0
LINE
  5
100015E
330
15
100
AcDbEntity
  8
ObszarDR10
  6
Continuous
370
    18
100
AcDbLine
 10
7571467.950000001
 20
5723981.66
 30
0.0
 11
7571540.660000001
 21
5723849.549999999
 31
0.0
  0
LINE
  5
100015F
330
15
100
AcDbEntity
  8
ObszarDR10
  6
Continuous
370
    18
100
AcDbLine
 10
7571654.040000001
 20
5724158.03
 30
0.0
 11
7571678.209999999
 21
5724171.55
 31
0.0
  0
LINE
  5
1000160
330
15
100
AcDbEntity
  8
ObszarDR10
  6
Continuous
370
    18
100
AcDbLine
 10
7571678.209999999
 20
5724171.55
 30
0.0
 11
7571725.69
 21
5724198.110000001
 31
0.0
  0
LINE
  5
1000161
330
15
100
AcDbEntity
  8
ObszarDR10
  6
Continuous
370
    18
100
AcDbLine
 10
7571725.69
 20
5724198.110000001
 30
0.0
 11
7571822.17
 21
5724022.75
 31
0.0
  0
LINE
  5
1000162
330
15
100
AcDbEntity
  8
ObszarDR10
  6
Continuous
370
    18
100
AcDbLine
 10
7571822.17
 20
5724022.75
 30
0.0
 11
7571751.599999998
 21
5723979.339999999
 31
0.0
  0
LINE
  5
1000163
330
15
100
AcDbEntity
  8
ObszarDR10
  6
Continuous
370
    18
100
AcDbLine
 10
7571751.599999998
 20
5723979.339999999
 30
0.0
 11
7571654.040000001
 21
5724158.03
 31
0.0
  0
LINE
  5
1000164
330
15
100
AcDbEntity
  8
ObszarDR10
  6
Continuous
370
    18
100
AcDbLine
 10
7571487.199999999
 20
5724291.57
 30
0.0
 11
7571498.110000001
 21
5724297.669999999
 31
0.0
  0
LINE
  5
1000165
330
15
100
AcDbEntity
  8
ObszarDR10
  6
Continuous
370
    18
100
AcDbLine
 10
7571498.110000001
 20
5724297.669999999
 30
0.0
 11
7571592.99
 21
5724123.879999999
 31
0.0
  0
LINE
  5
1000166
330
15
100
AcDbEntity
  8
ObszarDR10
  6
Continuous
370
    18
100
AcDbLine
 10
7571592.99
 20
5724123.879999999
 30
0.0
 11
7571582.21
 21
5724117.849999999
 31
0.0
  0
LINE
  5
1000167
330
15
100
AcDbEntity
  8
ObszarDR10
  6
Continuous
370
    18
100
AcDbLine
 10
7571582.21
 20
5724117.849999999
 30
0.0
 11
7571487.199999999
 21
5724291.57
 31
0.0
  0
LINE
  5
1000168
330
15
100
AcDbEntity
  8
ObszarDR10
  6
Continuous
370
    18
100
AcDbLine
 10
7571816.45
 20
5724477.87
 30
0.0
 11
7572002.789999999
 21
5724136.450000001
 31
0.0
  0
LINE
  5
1000169
330
15
100
AcDbEntity
  8
ObszarDR10
  6
Continuous
370
    18
100
AcDbLine
 10
7572002.789999999
 20
5724136.450000001
 30
0.0
 11
7571965.87
 21
5724113.9
 31
0.0
  0
LINE
  5
100016A
330
15
100
AcDbEntity
  8
ObszarDR10
  6
Continuous
370
    18
100
AcDbLine
 10
7571965.87
 20
5724113.9
 30
0.0
 11
7571779.160000001
 21
5724456.58
 31
0.0
  0
LINE
  5
100016B
330
15
100
AcDbEntity
  8
ObszarDR10
  6
Continuous
370
    18
100
AcDbLine
 10
7571779.160000001
 20
5724456.58
 30
0.0
 11
7571816.45
 21
5724477.87
 31
0.0
  0
LINE
  5
100016C
330
15
100
AcDbEntity
  8
ObszarDR10
  6
Continuous
370
    18
100
AcDbLine
 10
7571853.75
 20
5724499.15
 30
0.0
 11
7572039.71
 21
5724159.0
 31
0.0
  0
LINE
  5
100016D
330
15
100
AcDbEntity
  8
ObszarDR10
  6
Continuous
370
    18
100
AcDbLine
 10
7572039.71
 20
5724159.0
 30
0.0
 11
7572002.789999999
 21
5724136.450000001
 31
0.0
  0
LINE
  5
100016E
330
15
100
AcDbEntity
  8
ObszarDR10
  6
Continuous
370
    18
100
AcDbLine
 10
7572002.789999999
 20
5724136.450000001
 30
0.0
 11
7571816.45
 21
5724477.87
 31
0.0
  0
LINE
  5
100016F
330
15
100
AcDbEntity
  8
ObszarDR10
  6
Continuous
370
    18
100
AcDbLine
 10
7571816.45
 20
5724477.87
 30
0.0
 11
7571823.619999999
 21
5724481.95
 31
0.0
  0
LINE
  5
1000170
330
15
100
AcDbEntity
  8
ObszarDR10
  6
Continuous
370
    18
100
AcDbLine
 10
7571823.619999999
 20
5724481.95
 30
0.0
 11
7571853.75
 21
5724499.15
 31
0.0
  0
LINE
  5
1000171
330
15
100
AcDbEntity
  8
ObszarDR10
  6
Continuous
370
    18
100
AcDbLine
 10
7572076.62
 20
5724181.549999999
 30
0.0
 11
7572039.71
 21
5724159.0
 31
0.0
  0
LINE
  5
1000172
330
15
100
AcDbEntity
  8
ObszarDR10
  6
Continuous
370
    18
100
AcDbLine
 10
7572039.71
 20
5724159.0
 30
0.0
 11
7571853.75
 21
5724499.15
 31
0.0
  0
LINE
  5
1000173
330
15
100
AcDbEntity
  8
ObszarDR10
  6
Continuous
370
    18
100
AcDbLine
 10
7571853.75
 20
5724499.15
 30
0.0
 11
7571891.059999999
 21
5724520.449999999
 31
0.0
  0
LINE
  5
1000174
330
15
100
AcDbEntity
  8
ObszarDR10
  6
Continuous
370
    18
100
AcDbLine
 10
7571891.059999999
 20
5724520.449999999
 30
0.0
 11
7572076.62
 21
5724181.549999999
 31
0.0
  0
ENDSEC
  0
SECTION
  2
OBJECTS
  0
DICTIONARY
  5
196
330
0
100
AcDbDictionary
281
     1
  3
ACAD_CIP_PREVIOUS_PRODUCT_INFO
350
1000052
  3
ACAD_COLOR
350
1000036
  3
ACAD_DETAILVIEWSTYLE
350
1000050
  3
ACAD_GROUP
350
197
  3
ACAD_LAYOUT
350
198
  3
ACAD_MATERIAL
350
1000004
  3
ACAD_MLEADERSTYLE
350
100004B
  3
ACAD_MLINESTYLE
350
199
  3
ACAD_PLOTSETTINGS
350
19A
  3
ACAD_PLOTSTYLENAME
350
19B
  3
ACAD_SCALELIST
350
1000039
  3
ACAD_SECTIONVIEWSTYLE
350
100004D
  3
ACAD_TABLESTYLE
350
1000037
  3
ACAD_VISUALSTYLE
350
100001D
  3
ACAD_WIPEOUT_VARS
350
19C
  3
ACDB_RECOMPOSE_DATA
350
1000185
  3
AcDbVariableDictionary
350
1000002
  0
DICTIONARY
  5
1000175
330
8
100
AcDbDictionary
280
     1
281
     1
  3
ADSK_XREC_LAYER_RECONCILED
360
1000176
  0
DICTIONARY
  5
1000177
330
A
100
AcDbDictionary
280
     1
281
     1
  3
ADSK_XREC_LAYER_RECONCILED
360
1000178
  0
DICTIONARY
  5
10000BA
330
15
100
AcDbDictionary
280
     1
281
     1
  3
ACAD_SORTENTS
360
10000BB
  0
XRECORD
  5
1000052
102
{ACAD_REACTORS
330
196
102
}
330
196
100
AcDbXrecord
280
     1
300
CIV3D
300
2013
300
CIV3D_F_S
  0
DICTIONARY
  5
1000036
102
{ACAD_REACTORS
330
196
102
}
330
196
100
AcDbDictionary
281
     1
  0
DICTIONARY
  5
1000050
102
{ACAD_REACTORS
330
196
102
}
330
196
100
AcDbDictionary
281
     1
  3
Imperial24
350
1000051
  0
DICTIONARY
  5
197
102
{ACAD_REACTORS
330
196
102
}
330
196
100
AcDbDictionary
281
     1
  0
DICTIONARY
  5
198
102
{ACAD_REACTORS
330
196
102
}
330
196
100
AcDbDictionary
281
     1
  3
Layout
350
18
  3
Model
350
16
  0
DICTIONARY
  5
1000004
102
{ACAD_REACTORS
330
196
102
}
330
196
100
AcDbDictionary
281
     1
  3
ByBlock
350
100000D
  3
ByLayer
350
1000005
  3
Global
350
1000015
  0
DICTIONARY
  5
100004B
102
{ACAD_REACTORS
330
196
102
}
330
196
100
AcDbDictionary
281
     1
  3
Standard
350
100004C
  0
DICTIONARY
  5
199
102
{ACAD_REACTORS
330
196
102
}
330
196
100
AcDbDictionary
281
     1
  3
Standard
350
19D
  0
DICTIONARY
  5
19A
102
{ACAD_REACTORS
330
196
102
}
330
196
100
AcDbDictionary
281
     1
  0
ACDBDICTIONARYWDFLT
  5
19B
102
{ACAD_REACTORS
330
196
102
}
330
196
100
AcDbDictionary
281
     1
  3
Normal
350
9
100
AcDbDictionaryWithDefault
340
9
  0
DICTIONARY
  5
1000039
102
{ACAD_REACTORS
330
196
102
}
330
196
100
AcDbDictionary
281
     1
  3
A0
350
100003A
  3
A1
350
100003B
  3
A2
350
100003C
  3
A3
350
100003D
  3
A4
350
100003E
  3
A5
350
100003F
  3
A6
350
1000040
  3
A7
350
1000041
  3
A8
350
1000042
  3
A9
350
1000043
  3
B0
350
1000044
  3
B1
350
1000045
  3
B2
350
1000046
  3
B3
350
1000047
  3
B4
350
1000048
  3
B5
350
1000049
  3
B6
350
100004A
  0
DICTIONARY
  5
100004D
102
{ACAD_REACTORS
330
196
102
}
330
196
100
AcDbDictionary
281
     1
  3
Imperial24
350
100004F
  0
DICTIONARY
  5
1000037
102
{ACAD_REACTORS
330
196
102
}
330
196
100
AcDbDictionary
281
     1
  3
Standard
350
1000038
  0
DICTIONARY
  5
100001D
102
{ACAD_REACTORS
330
196
102
}
330
196
100
AcDbDictionary
281
     1
  3
2dWireframe
350
1000023
  3
Basic
350
1000022
  3
Brighten
350
1000029
  3
ColorChange
350
100002D
  3
Conceptual
350
1000026
  3
Dim
350
1000028
  3
EdgeColorOff
350
1000035
  3
Facepattern
350
100002C
  3
Flat
350
100001E
  3
FlatWithEdges
350
100001F
  3
Gouraud
350
1000020
  3
GouraudWithEdges
350
1000021
  3
Hidden
350
1000025
  3
JitterOff
350
1000033
  3
Linepattern
350
100002B
  3
OverhangOff
350
1000034
  3
Realistic
350
1000027
  3
Shaded
350
1000032
  3
Shaded with edges
350
1000031
  3
Shades of Gray
350
100002E
  3
Sketchy
350
100002F
  3
Thicken
350
100002A
  3
Wireframe
350
1000024
  3
X-Ray
350
1000030
  0
WIPEOUTVARIABLES
  5
19C
102
{ACAD_REACTORS
330
196
102
}
330
196
100
AcDbWipeoutVariables
 70
     0
  0
XRECORD
  5
1000185
102
{ACAD_REACTORS
330
196
102
}
330
196
100
AcDbXrecord
280
     1
 90
        1
330
1000038
  0
DICTIONARY
  5
1000002
102
{ACAD_REACTORS
330
196
102
}
330
196
100
AcDbDictionary
281
     1
  3
CANNOSCALE
350
100017E
  3
CMLEADERSTYLE
350
100017A
  3
CTABLESTYLE
350
1000179
  3
CVIEWDETAILSTYLE
350
100017B
  3
CVIEWSECTIONSTYLE
350
100017C
  3
LAYEREVAL
350
1000180
  3
LAYERNOTIFY
350
1000181
  3
LIGHTINGUNITS
350
100017F
  3
MSLTSCALE
350
100017D
  3
WIPEOUTFRAME
350
1000003
  0
XRECORD
  5
1000176
102
{ACAD_REACTORS
330
1000175
102
}
330
1000175
100
AcDbXrecord
280
     1
290
     1
  0
XRECORD
  5
1000178
102
{ACAD_REACTORS
330
1000177
102
}
330
1000177
100
AcDbXrecord
280
     1
290
     1
  0
SORTENTSTABLE
  5
10000BB
102
{ACAD_REACTORS
330
10000BA
102
}
330
10000BA
100
AcDbSortentsTable
330
15
331
10000D0
  5
10000E8
331
10000E1
  5
10000D9
331
10000EB
  5
10000CF
331
18C
  5
100016B
331
10000FC
  5
10000C3
331
100010D
  5
10000A9
331
100011E
  5
1000099
331
100012F
  5
100008E
331
1000060
  5
100010D
331
1000140
  5
100007C
331
100007B
  5
1000128
331
1000151
  5
1000069
331
10000AE
  5
100015B
331
100009D
  5
100014A
331
100008C
  5
1000139
331
100016C
  5
18C
331
10000BF
  5
10000F4
331
10000C0
  5
10000F5
331
10000D1
  5
10000E9
331
10000E2
  5
10000DA
331
10000EC
  5
10000D0
331
18D
  5
100016C
331
10000FD
  5
10000B8
331
100010E
  5
10000AA
331
100011F
  5
100009A
331
1000130
  5
1000085
331
1000061
  5
100010E
331
1000141
  5
1000075
331
100007C
  5
1000129
331
1000152
  5
100006A
331
10000AF
  5
100015C
331
100009E
  5
100014B
331
100008D
  5
100013A
331
100016D
  5
18D
331
10000B0
  5
100015D
331
10000C1
  5
10000F6
331
10000D2
  5
10000EA
331
10000E3
  5
10000DB
331
10000ED
  5
10000D1
331
18E
  5
100016D
331
10000FE
  5
10000B9
331
100010F
  5
10000AB
331
1000120
  5
100009B
331
1000131
  5
1000086
331
1000062
  5
100010F
331
1000142
  5
1000076
331
100007D
  5
100012A
331
1000153
  5
100006B
331
100009F
  5
100014C
331
100008E
  5
100013B
331
100016E
  5
18E
331
10000B1
  5
100015E
331
10000A0
  5
100014D
331
10000C2
  5
10000F7
331
10000D3
  5
10000EB
331
10000E4
  5
10000D2
331
10000EE
  5
10000C8
331
18F
  5
100016E
331
10000FF
  5
10000BC
331
1000110
  5
10000AC
331
1000121
  5
100009C
331
1000132
  5
1000087
331
1000063
  5
1000110
331
100007E
  5
100012B
331
1000154
  5
100006C
331
100008F
  5
100013C
331
100016F
  5
18F
331
1000143
  5
1000077
331
10000B2
  5
100015F
331
10000A1
  5
100014E
331
1000090
  5
100013D
331
1000170
  5
190
331
10000C3
  5
10000F8
331
10000E5
  5
10000D3
331
10000EF
  5
10000C9
331
190
  5
100016F
331
1000100
  5
10000BD
331
1000111
  5
10000AD
331
1000122
  5
100009D
331
1000053
  5
1000100
331
1000133
  5
1000088
331
1000064
  5
1000111
331
1000144
  5
1000078
331
100007F
  5
100012C
331
1000155
  5
100006D
331
10000D4
  5
10000E4
331
1000080
  5
100012D
331
1000160
  5
1000057
331
10000B3
  5
1000160
331
10000A2
  5
100014F
331
1000091
  5
100013E
331
10000C4
  5
10000F9
331
1000171
  5
188
331
10000D5
  5
10000E5
331
10000E6
  5
10000D4
331
10000F0
  5
10000CA
331
191
  5
1000170
331
1000101
  5
10000BE
331
1000112
  5
10000A4
331
1000123
  5
1000093
331
1000054
  5
1000101
331
1000134
  5
1000089
331
1000065
  5
1000112
331
1000145
  5
100006E
331
1000156
  5
1000060
331
1000070
  5
100011D
331
1000081
  5
100012E
331
1000161
  5
1000058
331
10000B4
  5
1000161
331
10000A3
  5
1000150
331
1000092
  5
100013F
331
10000C5
  5
10000FA
331
1000172
  5
189
331
10000D6
  5
10000E6
331
10000E7
  5
10000D5
331
10000F1
  5
10000CB
331
192
  5
1000171
331
1000102
  5
10000B2
331
1000124
  5
1000094
331
1000055
  5
1000102
331
1000135
  5
1000081
331
1000066
  5
1000113
331
1000146
  5
100006F
331
1000157
  5
1000061
331
1000113
  5
10000A5
331
1000071
  5
100011E
331
1000158
  5
1000062
331
1000082
  5
100012F
331
1000162
  5
1000059
331
10000B5
  5
1000162
331
10000A4
  5
1000151
331
1000093
  5
1000140
331
10000C6
  5
10000FB
331
1000173
  5
18A
331
10000D7
  5
10000E7
331
10000F2
  5
10000CC
331
193
  5
1000172
331
1000114
  5
10000A6
331
1000103
  5
10000B3
331
1000125
  5
1000095
331
1000056
  5
1000103
331
1000136
  5
1000082
331
1000067
  5
1000114
331
1000147
  5
1000070
331
1000068
  5
1000115
331
1000148
  5
1000071
331
1000072
  5
100011F
331
1000159
  5
1000063
331
1000083
  5
1000130
331
1000163
  5
100005A
331
10000B6
  5
1000163
331
10000A5
  5
1000152
331
1000094
  5
1000141
331
10000C7
  5
10000FC
331
1000174
  5
18B
331
10000D8
  5
10000E0
331
10000F3
  5
10000CD
331
194
  5
1000173
331
1000115
  5
10000A7
331
1000104
  5
10000B4
331
1000057
  5
1000104
331
1000137
  5
1000083
331
1000126
  5
1000096
331
1000058
  5
1000105
331
1000138
  5
1000084
331
1000069
  5
1000116
331
1000149
  5
1000072
331
1000073
  5
1000120
331
100015A
  5
100005B
331
10000B7
  5
1000164
331
10000A6
  5
1000153
331
1000095
  5
1000142
331
1000084
  5
1000131
331
1000164
  5
195
331
10000C8
  5
10000FD
331
10000D9
  5
10000E1
331
195
  5
1000174
331
1000105
  5
10000B5
331
10000F4
  5
10000C4
331
1000127
  5
100008F
331
1000116
  5
100009E
331
1000128
  5
1000090
331
1000059
  5
1000106
331
1000139
  5
100007D
331
100006A
  5
1000117
331
100014A
  5
1000073
331
1000074
  5
1000121
331
100015B
  5
100005C
331
10000B8
  5
1000165
331
10000A7
  5
1000154
331
1000096
  5
1000143
331
1000085
  5
1000132
331
1000165
  5
1000053
331
10000C9
  5
10000FE
331
10000DA
  5
10000E2
331
1000106
  5
10000B6
331
10000F5
  5
10000C5
331
1000117
  5
100009F
331
1000118
  5
10000A0
331
1000129
  5
1000091
331
100005A
  5
1000107
331
100013A
  5
100007E
331
100006B
  5
1000118
331
100014B
  5
1000074
331
1000075
  5
1000122
331
100015C
  5
100005D
331
10000B9
  5
1000166
331
10000A8
  5
1000155
331
1000097
  5
1000144
331
1000086
  5
1000133
331
1000166
  5
1000054
331
10000CA
  5
10000FF
331
10000DB
  5
10000E3
331
1000107
  5
10000B7
331
10000F6
  5
10000C6
331
1000108
  5
10000AE
331
1000119
  5
10000A1
331
100012A
  5
1000092
331
100005B
  5
1000108
331
100013B
  5
100007F
331
100006C
  5
1000119
331
100014C
  5
1000064
331
1000076
  5
1000123
331
100015D
  5
100005E
331
10000A9
  5
1000156
331
1000098
  5
1000145
331
1000087
  5
1000134
331
1000167
  5
1000055
331
10000CB
  5
10000EC
331
10000F7
  5
10000C7
331
188
  5
1000167
331
10000F8
  5
10000BF
331
1000109
  5
10000AF
331
100011A
  5
10000A2
331
100012B
  5
100008A
331
100005C
  5
1000109
331
100013C
  5
1000080
331
100006D
  5
100011A
331
100014D
  5
1000065
331
1000077
  5
1000124
331
100015E
  5
100005F
331
10000AA
  5
1000157
331
1000099
  5
1000146
331
1000088
  5
1000135
331
1000168
  5
191
331
10000CC
  5
10000ED
331
10000E8
  5
10000D6
331
189
  5
1000168
331
10000F9
  5
10000C0
331
100010A
  5
10000B0
331
100011B
  5
10000A3
331
100012C
  5
100008B
331
100005D
  5
100010A
331
100013D
  5
1000079
331
100006E
  5
100011B
331
100014E
  5
1000066
331
1000078
  5
1000125
331
100015F
  5
1000056
331
10000AB
  5
1000158
331
100009A
  5
1000147
331
1000089
  5
1000136
331
1000169
  5
192
331
10000BC
  5
10000F1
331
10000CD
  5
10000EE
331
10000E9
  5
10000D7
331
18A
  5
1000169
331
10000FA
  5
10000C1
331
100010B
  5
10000B1
331
100011C
  5
1000097
331
100012D
  5
100008C
331
100005E
  5
100010B
331
100013E
  5
100007A
331
1000079
  5
1000126
331
100006F
  5
100011C
331
100014F
  5
1000067
331
10000AC
  5
1000159
331
100009B
  5
1000148
331
100008A
  5
1000137
331
100016A
  5
193
331
10000BD
  5
10000F2
331
10000CE
  5
10000EF
331
10000E0
  5
10000D8
331
10000EA
  5
10000CE
331
18B
  5
100016A
331
10000FB
  5
10000C2
331
100010C
  5
10000A8
331
100011D
  5
1000098
331
100012E
  5
100008D
331
100005F
  5
100010C
331
100013F
  5
100007B
331
100007A
  5
1000127
331
1000150
  5
1000068
331
10000AD
  5
100015A
331
100009C
  5
1000149
331
100008B
  5
1000138
331
100016B
  5
194
331
10000BE
  5
10000F3
331
10000CF
  5
10000F0
  0
ACDBDETAILVIEWSTYLE
  5
1000051
102
{ACAD_REACTORS
330
1000050
102
}
330
1000050
100
AcDbModelDocViewStyle
 70
     0
  3
Imperial24
290
     0
100
AcDbDetailViewStyle
 70
     0
 71
     0
 90
        3
 71
     1
340
C
 62
   256
 40
0.24
340
0
 62
   256
 40
0.24
300

 40
0.36
280
     3
 71
     2
340
6
 90
       25
 62
   256
 71
     3
340
C
 62
   256
 40
0.24
 90
        1
 40
0.75
 90
        1
300
%<\AcVar ViewType \f "%tc1">% %<\AcVar ViewDetailId>%\PSKALA %<\AcVar ViewScale \f "%sn">%
 71
     4
340
6
 90
       25
 62
   256
340
6
 90
       25
 62
   256
280
     0
  0
LAYOUT
  5
18
330
198
100
AcDbPlotSettings
  1

  2

  4

  6

 40
0.0
 41
0.0
 42
0.0
 43
0.0
 44
0.0
 45
0.0
 46
0.0
 47
0.0
 48
0.0
 49
0.0
140
0.0
141
0.0
142
1.0
143
1.0
 70
   688
 72
     1
 73
     0
 74
     5
  7

 75
     0
147
1.0
 76
     0
 77
     2
 78
   300
148
0.0
149
0.0
100
AcDbLayout
  1
Layout
 70
     1
 71
     1
 10
0.0
 20
0.0
 11
210.0
 21
297.0
 12
0.0
 22
0.0
 32
0.0
 14
1.000000000000000E+20
 24
1.000000000000000E+20
 34
1.000000000000000E+20
 15
-1.000000000000000E+20
 25
-1.000000000000000E+20
 35
-1.000000000000000E+20
146
0.0
 13
0.0
 23
0.0
 33
0.0
 16
1.0
 26
0.0
 36
0.0
 17
0.0
 27
1.0
 37
0.0
 76
     0
330
17
  0
LAYOUT
  5
16
330
198
100
AcDbPlotSettings
  1

  2

  4

  6

 40
0.0
 41
0.0
 42
0.0
 43
0.0
 44
0.0
 45
0.0
 46
0.0
 47
0.0
 48
0.0
 49
0.0
140
0.0
141
0.0
142
1.0
143
1.0
 70
  1712
 72
     1
 73
     0
 74
     0
  7

 75
     0
147
1.0
 76
     0
 77
     2
 78
   300
148
0.0
149
0.0
100
AcDbLayout
  1
Model
 70
     1
 71
     0
 10
0.0
 20
0.0
 11
12.0
 21
9.0
 12
0.0
 22
0.0
 32
0.0
 14
0.0
 24
0.0
 34
0.0
 15
0.0
 25
0.0
 35
0.0
146
0.0
 13
0.0
 23
0.0
 33
0.0
 16
1.0
 26
0.0
 36
0.0
 17
0.0
 27
1.0
 37
0.0
 76
     0
330
15
331
2
  0
MATERIAL
  5
100000D
102
{ACAD_XDICTIONARY
360
100000E
102
}
102
{ACAD_REACTORS
330
1000004
102
}
330
1000004
100
AcDbMaterial
  1
ByBlock
 72
     0
 43
0.820209973753281
 43
0.0
 43
0.0
 43
0.0
 43
0.0
 43
0.820209973753281
 43
0.0
 43
0.0
 43
0.0
 43
0.0
 43
1.0
 43
0.0
 43
0.0
 43
0.0
 43
0.0
 43
1.0
 77
     0
 47
0.820209973753281
 47
0.0
 47
0.0
 47
0.0
 47
0.0
 47
0.820209973753281
 47
0.0
 47
0.0
 47
0.0
 47
0.0
 47
1.0
 47
0.0
 47
0.0
 47
0.0
 47
0.0
 47
1.0
171
     0
 49
0.820209973753281
 49
0.0
 49
0.0
 49
0.0
 49
0.0
 49
0.820209973753281
 49
0.0
 49
0.0
 49
0.0
 49
0.0
 49
1.0
 49
0.0
 49
0.0
 49
0.0
 49
0.0
 49
1.0
175
     0
142
0.820209973753281
142
0.0
142
0.0
142
0.0
142
0.0
142
0.820209973753281
142
0.0
142
0.0
142
0.0
142
0.0
142
1.0
142
0.0
142
0.0
142
0.0
142
0.0
142
1.0
179
     0
144
0.820209973753281
144
0.0
144
0.0
144
0.0
144
0.0
144
0.820209973753281
144
0.0
144
0.0
144
0.0
144
0.0
144
1.0
144
0.0
144
0.0
144
0.0
144
0.0
144
1.0
147
0.820209973753281
147
0.0
147
0.0
147
0.0
147
0.0
147
0.820209973753281
147
0.0
147
0.0
147
0.0
147
0.0
147
1.0
147
0.0
147
0.0
147
0.0
147
0.0
147
1.0
  0
MATERIAL
  5
1000005
102
{ACAD_XDICTIONARY
360
1000006
102
}
102
{ACAD_REACTORS
330
1000004
102
}
330
1000004
100
AcDbMaterial
  1
ByLayer
 72
     0
 43
0.820209973753281
 43
0.0
 43
0.0
 43
0.0
 43
0.0
 43
0.820209973753281
 43
0.0
 43
0.0
 43
0.0
 43
0.0
 43
1.0
 43
0.0
 43
0.0
 43
0.0
 43
0.0
 43
1.0
 77
     0
 47
0.820209973753281
 47
0.0
 47
0.0
 47
0.0
 47
0.0
 47
0.820209973753281
 47
0.0
 47
0.0
 47
0.0
 47
0.0
 47
1.0
 47
0.0
 47
0.0
 47
0.0
 47
0.0
 47
1.0
171
     0
 49
0.820209973753281
 49
0.0
 49
0.0
 49
0.0
 49
0.0
 49
0.820209973753281
 49
0.0
 49
0.0
 49
0.0
 49
0.0
 49
1.0
 49
0.0
 49
0.0
 49
0.0
 49
0.0
 49
1.0
175
     0
142
0.820209973753281
142
0.0
142
0.0
142
0.0
142
0.0
142
0.820209973753281
142
0.0
142
0.0
142
0.0
142
0.0
142
1.0
142
0.0
142
0.0
142
0.0
142
0.0
142
1.0
179
     0
144
0.820209973753281
144
0.0
144
0.0
144
0.0
144
0.0
144
0.820209973753281
144
0.0
144
0.0
144
0.0
144
0.0
144
1.0
144
0.0
144
0.0
144
0.0
144
0.0
144
1.0
147
0.820209973753281
147
0.0
147
0.0
147
0.0
147
0.0
147
0.820209973753281
147
0.0
147
0.0
147
0.0
147
0.0
147
1.0
147
0.0
147
0.0
147
0.0
147
0.0
147
1.0
  0
MATERIAL
  5
1000015
102
{ACAD_XDICTIONARY
360
1000016
102
}
102
{ACAD_REACTORS
330
1000004
102
}
330
1000004
100
AcDbMaterial
  1
Global
 72
     0
 43
0.820209973753281
 43
0.0
 43
0.0
 43
0.0
 43
0.0
 43
0.820209973753281
 43
0.0
 43
0.0
 43
0.0
 43
0.0
 43
1.0
 43
0.0
 43
0.0
 43
0.0
 43
0.0
 43
1.0
 77
     0
 47
0.820209973753281
 47
0.0
 47
0.0
 47
0.0
 47
0.0
 47
0.820209973753281
 47
0.0
 47
0.0
 47
0.0
 47
0.0
 47
1.0
 47
0.0
 47
0.0
 47
0.0
 47
0.0
 47
1.0
171
     0
 49
0.820209973753281
 49
0.0
 49
0.0
 49
0.0
 49
0.0
 49
0.820209973753281
 49
0.0
 49
0.0
 49
0.0
 49
0.0
 49
1.0
 49
0.0
 49
0.0
 49
0.0
 49
0.0
 49
1.0
175
     0
142
0.820209973753281
142
0.0
142
0.0
142
0.0
142
0.0
142
0.820209973753281
142
0.0
142
0.0
142
0.0
142
0.0
142
1.0
142
0.0
142
0.0
142
0.0
142
0.0
142
1.0
179
     0
144
0.820209973753281
144
0.0
144
0.0
144
0.0
144
0.0
144
0.820209973753281
144
0.0
144
0.0
144
0.0
144
0.0
144
1.0
144
0.0
144
0.0
144
0.0
144
0.0
144
1.0
147
0.820209973753281
147
0.0
147
0.0
147
0.0
147
0.0
147
0.820209973753281
147
0.0
147
0.0
147
0.0
147
0.0
147
1.0
147
0.0
147
0.0
147
0.0
147
0.0
147
1.0
  0
MLEADERSTYLE
  5
100004C
102
{ACAD_REACTORS
330
100004B
102
}
330
100004B
100
AcDbMLeaderStyle
179
     2
170
     2
171
     1
172
     0
 90
        2
 40
0.0
 41
0.0
173
     1
 91
-1056964608
340
4
 92
       -2
290
     1
 42
0.09
291
     1
 43
0.36
  3
Standard
 44
0.18
300

342
C
174
     1
178
     6
175
     1
176
     0
 93
-1056964608
 45
0.18
292
     0
297
     0
 46
0.18
 94
-1056964608
 47
1.0
 49
1.0
140
1.0
293
     1
141
0.0
294
     1
177
     0
142
1.0
295
     0
296
     0
143
0.125
271
     0
272
     9
273
     9
  0
MLINESTYLE
  5
19D
102
{ACAD_REACTORS
330
199
102
}
330
199
100
AcDbMlineStyle
  2
STANDARD
 70
     0
  3

 62
   256
 51
90.0
 52
90.0
 71
     2
 49
0.5
 62
   256
  6
BYLAYER
 49
-0.5
 62
   256
  6
BYLAYER
  0
ACDBPLACEHOLDER
  5
9
330
19B
  0
SCALE
  5
100003A
102
{ACAD_REACTORS
330
1000039
102
}
330
1000039
100
AcDbScale
 70
     0
300
1:1
140
1.0
141
1.0
290
     1
  0
SCALE
  5
100003B
102
{ACAD_REACTORS
330
1000039
102
}
330
1000039
100
AcDbScale
 70
     0
300
1/128" = 1'-0"
140
0.0078125
141
12.0
290
     0
  0
SCALE
  5
100003C
102
{ACAD_REACTORS
330
1000039
102
}
330
1000039
100
AcDbScale
 70
     0
300
1/64" = 1'-0"
140
0.015625
141
12.0
290
     0
  0
SCALE
  5
100003D
102
{ACAD_REACTORS
330
1000039
102
}
330
1000039
100
AcDbScale
 70
     0
300
1/32" = 1'-0"
140
0.03125
141
12.0
290
     0
  0
SCALE
  5
100003E
102
{ACAD_REACTORS
330
1000039
102
}
330
1000039
100
AcDbScale
 70
     0
300
1/16" = 1'-0"
140
0.0625
141
12.0
290
     0
  0
SCALE
  5
100003F
102
{ACAD_REACTORS
330
1000039
102
}
330
1000039
100
AcDbScale
 70
     0
300
3/32" = 1'-0"
140
0.09375
141
12.0
290
     0
  0
SCALE
  5
1000040
102
{ACAD_REACTORS
330
1000039
102
}
330
1000039
100
AcDbScale
 70
     0
300
1/8" = 1'-0"
140
0.125
141
12.0
290
     0
  0
SCALE
  5
1000041
102
{ACAD_REACTORS
330
1000039
102
}
330
1000039
100
AcDbScale
 70
     0
300
3/16" = 1'-0"
140
0.1875
141
12.0
290
     0
  0
SCALE
  5
1000042
102
{ACAD_REACTORS
330
1000039
102
}
330
1000039
100
AcDbScale
 70
     0
300
1/4" = 1'-0"
140
0.25
141
12.0
290
     0
  0
SCALE
  5
1000043
102
{ACAD_REACTORS
330
1000039
102
}
330
1000039
100
AcDbScale
 70
     0
300
3/8" = 1'-0"
140
0.375
141
12.0
290
     0
  0
SCALE
  5
1000044
102
{ACAD_REACTORS
330
1000039
102
}
330
1000039
100
AcDbScale
 70
     0
300
1/2" = 1'-0"
140
0.5
141
12.0
290
     0
  0
SCALE
  5
1000045
102
{ACAD_REACTORS
330
1000039
102
}
330
1000039
100
AcDbScale
 70
     0
300
3/4" = 1'-0"
140
0.75
141
12.0
290
     0
  0
SCALE
  5
1000046
102
{ACAD_REACTORS
330
1000039
102
}
330
1000039
100
AcDbScale
 70
     0
300
1" = 1'-0"
140
1.0
141
12.0
290
     0
  0
SCALE
  5
1000047
102
{ACAD_REACTORS
330
1000039
102
}
330
1000039
100
AcDbScale
 70
     0
300
1-1/2" = 1'-0"
140
1.5
141
12.0
290
     0
  0
SCALE
  5
1000048
102
{ACAD_REACTORS
330
1000039
102
}
330
1000039
100
AcDbScale
 70
     0
300
3" = 1'-0"
140
3.0
141
12.0
290
     0
  0
SCALE
  5
1000049
102
{ACAD_REACTORS
330
1000039
102
}
330
1000039
100
AcDbScale
 70
     0
300
6" = 1'-0"
140
6.0
141
12.0
290
     0
  0
SCALE
  5
100004A
102
{ACAD_REACTORS
330
1000039
102
}
330
1000039
100
AcDbScale
 70
     0
300
1'-0" = 1'-0"
140
12.0
141
12.0
290
     0
  0
ACDBSECTIONVIEWSTYLE
  5
100004F
102
{ACAD_REACTORS
330
100004D
102
}
330
100004D
100
AcDbModelDocViewStyle
 70
     0
  3
Imperial24
290
     0
100
AcDbSectionViewStyle
 70
     0
 71
     0
 90
       78
 71
     1
340
C
 62
   256
 40
0.24
340
0
340
0
 62
   256
 40
0.24
300
I, O, Q, S, X, Z
 40
0.48
 90
        3
 40
0.18
 90
        1
 71
     2
340
100004E
 90
       25
 62
   256
340
6
 90
       50
 62
   256
 40
0.24
 40
0.0
 40
0.24
 71
     3
340
C
 62
   256
 40
0.24
 90
        1
 40
0.75
 90
        1
300
%<\AcVar ViewType \f "%tc1">% %<\AcVar ViewSectionStartId>%-%<\AcVar ViewSectionEndId>%\PSKALA %<\AcVar ViewScale \f "%sn">%
 71
     4
 62
   256
 62
   257
300
ANSI31
 40
1.0
 90
        0
290
     0
290
     0
 90
        6
 40
0.0
 40
1.570796326794896
 40
0.2617993877991494
 40
1.308996938995747
 40
-0.2617993877991494
 40
1.832595714594046
  0
TABLESTYLE
  5
1000038
102
{ACAD_XDICTIONARY
360
1000183
102
}
102
{ACAD_REACTORS
330
1000037
102
}
330
1000037
100
AcDbTableStyle
280
     0
  3
Standard
 70
     0
 71
     0
 40
0.06
 41
0.06
280
     0
281
     0
  7
STANDARD
140
0.18
170
     2
 62
     0
 63
     7
283
     0
 90
      512
 91
        0
  1

274
    -2
284
     1
 64
     0
275
    -2
285
     1
 65
     0
276
    -2
286
     1
 66
     0
277
    -2
287
     1
 67
     0
278
    -2
288
     1
 68
     0
279
    -2
289
     1
 69
     0
  7
STANDARD
140
0.25
170
     5
 62
     0
 63
     7
283
     0
 90
      512
 91
        0
  1

274
    -2
284
     1
 64
     0
275
    -2
285
     1
 65
     0
276
    -2
286
     1
 66
     0
277
    -2
287
     1
 67
     0
278
    -2
288
     1
 68
     0
279
    -2
289
     1
 69
     0
  7
STANDARD
140
0.18
170
     5
 62
     0
 63
     7
283
     0
 90
      512
 91
        0
  1

274
    -2
284
     1
 64
     0
275
    -2
285
     1
 65
     0
276
    -2
286
     1
 66
     0
277
    -2
287
     1
 67
     0
278
    -2
288
     1
 68
     0
279
    -2
289
     1
 69
     0
  0
VISUALSTYLE
  5
1000023
102
{ACAD_XDICTIONARY
360
1000190
102
}
102
{ACAD_REACTORS
330
100001D
102
}
330
100001D
100
AcDbVisualStyle
  2
2dWireframe
 70
     4
177
     2
291
     0
 71
     0
176
     1
 72
     2
176
     1
 73
     0
176
     1
 90
        0
176
     1
 40
0.6
176
     1
 41
30.0
176
     1
 63
     7
421
 16777215
176
     1
 74
     1
176
     1
 91
        4
176
     1
 64
     7
176
     1
 65
   257
176
     1
 75
     1
176
     1
175
     1
176
     1
 42
1.0
176
     1
 92
        0
176
     1
 66
   257
176
     1
 43
1.0
176
     1
 76
     1
176
     1
 77
     6
176
     1
 78
     2
176
     1
 67
     7
176
     1
 79
     5
176
     1
170
     0
176
     1
171
     0
176
     1
290
     0
176
     1
 93
        1
176
     1
 44
0.0
176
     1
173
     0
176
     1
1001
ACAD
1000
AcDbSavedByObjectVersion
1070
     0
  0
VISUALSTYLE
  5
1000022
102
{ACAD_XDICTIONARY
360
100018E
102
}
102
{ACAD_REACTORS
330
100001D
102
}
330
100001D
100
AcDbVisualStyle
  2
Basic
 70
     7
177
     2
291
     1
 71
     1
176
     1
 72
     0
176
     1
 73
     1
176
     1
 90
        0
176
     1
 40
0.6
176
     1
 41
30.0
176
     1
 63
     7
421
 16777215
176
     1
 74
     0
176
     1
 91
        4
176
     1
 64
     7
176
     1
 65
   257
176
     1
 75
     1
176
     1
175
     1
176
     1
 42
1.0
176
     1
 92
        8
176
     1
 66
     7
176
     1
 43
1.0
176
     1
 76
     1
176
     1
 77
     6
176
     1
 78
     2
176
     1
 67
     7
176
     1
 79
     5
176
     1
170
     0
176
     1
171
     0
176
     1
290
     0
176
     1
 93
        1
176
     1
 44
0.0
176
     1
173
     0
176
     1
1001
ACAD
1000
AcDbSavedByObjectVersion
1070
     0
  0
VISUALSTYLE
  5
1000029
102
{ACAD_XDICTIONARY
360
100019C
102
}
102
{ACAD_REACTORS
330
100001D
102
}
330
100001D
100
AcDbVisualStyle
  2
Brighten
 70
    12
177
     2
291
     1
 71
     2
176
     1
 72
     2
176
     1
 73
     0
176
     1
 90
        0
176
     1
 40
0.6
176
     1
 41
30.0
176
     1
 63
     7
421
 16777215
176
     1
 74
     1
176
     1
 91
        4
176
     1
 64
     7
176
     1
 65
   257
176
     1
 75
     1
176
     1
175
     1
176
     1
 42
1.0
176
     1
 92
        8
176
     1
 66
     7
176
     1
 43
1.0
176
     1
 76
     1
176
     1
 77
     6
176
     1
 78
     2
176
     1
 67
     7
176
     1
 79
     5
176
     1
170
     0
176
     1
171
     0
176
     1
290
     0
176
     1
 93
        1
176
     1
 44
50.0
176
     1
173
     0
176
     1
1001
ACAD
1000
AcDbSavedByObjectVersion
1070
     0
  0
VISUALSTYLE
  5
100002D
102
{ACAD_XDICTIONARY
360
10001A4
102
}
102
{ACAD_REACTORS
330
100001D
102
}
330
100001D
100
AcDbVisualStyle
  2
ColorChange
 70
    16
177
     2
291
     1
 71
     2
176
     1
 72
     2
176
     1
 73
     3
176
     1
 90
        0
176
     1
 40
0.6
176
     1
 41
30.0
176
     1
 63
     8
421
  8421504
176
     1
 74
     1
176
     1
 91
        4
176
     1
 64
     7
176
     1
 65
   257
176
     1
 75
     1
176
     1
175
     1
176
     1
 42
1.0
176
     1
 92
        8
176
     1
 66
     8
424
  8421504
176
     1
 43
1.0
176
     1
 76
     1
176
     1
 77
     6
176
     1
 78
     2
176
     1
 67
     7
176
     1
 79
     5
176
     1
170
     0
176
     1
171
     0
176
     1
290
     0
176
     1
 93
        1
176
     1
 44
0.0
176
     1
173
     0
176
     1
1001
ACAD
1000
AcDbSavedByObjectVersion
1070
     0
  0
VISUALSTYLE
  5
1000026
102
{ACAD_XDICTIONARY
360
1000196
102
}
102
{ACAD_REACTORS
330
100001D
102
}
330
100001D
100
AcDbVisualStyle
  2
Conceptual
 70
     9
177
     2
291
     0
 71
     3
176
     1
 72
     2
176
     1
 73
     0
176
     1
 90
        0
176
     1
 40
0.6
176
     1
 41
30.0
176
     1
 63
     7
421
 16777215
176
     1
 74
     2
176
     1
 91
        2
176
     1
 64
     7
176
     1
 65
   257
176
     1
 75
     1
176
     1
175
     1
176
     1
 42
179.0
176
     1
 92
        8
176
     1
 66
     7
176
     1
 43
1.0
176
     1
 76
     1
176
     1
 77
     6
176
     1
 78
     2
176
     1
 67
     7
176
     1
 79
     3
176
     1
170
     0
176
     1
171
     0
176
     1
290
     0
176
     1
 93
        1
176
     1
 44
0.0
176
     1
173
     0
176
     1
1001
ACAD
1000
AcDbSavedByObjectVersion
1070
     0
  0
VISUALSTYLE
  5
1000028
102
{ACAD_XDICTIONARY
360
100019A
102
}
102
{ACAD_REACTORS
330
100001D
102
}
330
100001D
100
AcDbVisualStyle
  2
Dim
 70
    11
177
     2
291
     1
 71
     2
176
     1
 72
     2
176
     1
 73
     0
176
     1
 90
        0
176
     1
 40
0.6
176
     1
 41
30.0
176
     1
 63
     7
421
 16777215
176
     1
 74
     1
176
     1
 91
        4
176
     1
 64
     7
176
     1
 65
   257
176
     1
 75
     1
176
     1
175
     1
176
     1
 42
1.0
176
     1
 92
        8
176
     1
 66
     7
176
     1
 43
1.0
176
     1
 76
     1
176
     1
 77
     6
176
     1
 78
     2
176
     1
 67
     7
176
     1
 79
     5
176
     1
170
     0
176
     1
171
     0
176
     1
290
     0
176
     1
 93
        1
176
     1
 44
-50.0
176
     1
173
     0
176
     1
1001
ACAD
1000
AcDbSavedByObjectVersion
1070
     0
  0
VISUALSTYLE
  5
1000035
102
{ACAD_XDICTIONARY
360
10001B4
102
}
102
{ACAD_REACTORS
330
100001D
102
}
330
100001D
100
AcDbVisualStyle
  2
EdgeColorOff
 70
    22
177
     2
291
     1
 71
     2
176
     0
 72
     2
176
     0
 73
     0
176
     0
 90
        0
176
     0
 40
0.6
176
     0
 41
30.0
176
     0
 63
     7
421
 16777215
176
     0
 74
     1
176
     0
 91
        4
176
     0
 64
     7
176
     0
 65
   257
176
     0
 75
     1
176
     0
175
     1
176
     0
 42
1.0
176
     0
 92
        8
176
     2
 66
     7
176
     0
 43
1.0
176
     0
 76
     1
176
     0
 77
     6
176
     0
 78
     2
176
     0
 67
     7
176
     0
 79
     5
176
     0
170
     0
176
     0
171
     0
176
     0
290
     0
176
     0
 93
        1
176
     0
 44
0.0
176
     0
173
     0
176
     0
1001
ACAD
1000
AcDbSavedByObjectVersion
1070
     0
  0
VISUALSTYLE
  5
100002C
102
{ACAD_XDICTIONARY
360
10001A2
102
}
102
{ACAD_REACTORS
330
100001D
102
}
330
100001D
100
AcDbVisualStyle
  2
Facepattern
 70
    15
177
     2
291
     1
 71
     2
176
     1
 72
     2
176
     1
 73
     0
176
     1
 90
        0
176
     1
 40
0.6
176
     1
 41
30.0
176
     1
 63
     7
421
 16777215
176
     1
 74
     1
176
     1
 91
        4
176
     1
 64
     7
176
     1
 65
   257
176
     1
 75
     1
176
     1
175
     1
176
     1
 42
1.0
176
     1
 92
        8
176
     1
 66
     7
176
     1
 43
1.0
176
     1
 76
     1
176
     1
 77
     6
176
     1
 78
     2
176
     1
 67
     7
176
     1
 79
     5
176
     1
170
     0
176
     1
171
     0
176
     1
290
     0
176
     1
 93
        1
176
     1
 44
0.0
176
     1
173
     0
176
     1
1001
ACAD
1000
AcDbSavedByObjectVersion
1070
     0
  0
VISUALSTYLE
  5
100001E
102
{ACAD_XDICTIONARY
360
1000186
102
}
102
{ACAD_REACTORS
330
100001D
102
}
330
100001D
100
AcDbVisualStyle
  2
Flat
 70
     0
177
     2
291
     1
 71
     2
176
     1
 72
     1
176
     1
 73
     1
176
     1
 90
        2
176
     1
 40
0.6
176
     1
 41
30.0
176
     1
 63
     7
421
 16777215
176
     1
 74
     0
176
     1
 91
        0
176
     1
 64
     7
176
     1
 65
   257
176
     1
 75
     1
176
     1
175
     1
176
     1
 42
1.0
176
     1
 92
        8
176
     1
 66
     7
176
     1
 43
1.0
176
     1
 76
     1
176
     1
 77
     6
176
     1
 78
     2
176
     1
 67
     7
176
     1
 79
     5
176
     1
170
     0
176
     1
171
     0
176
     1
290
     0
176
     1
 93
       13
176
     1
 44
0.0
176
     1
173
     0
176
     1
1001
ACAD
1000
AcDbSavedByObjectVersion
1070
     0
  0
VISUALSTYLE
  5
100001F
102
{ACAD_XDICTIONARY
360
1000188
102
}
102
{ACAD_REACTORS
330
100001D
102
}
330
100001D
100
AcDbVisualStyle
  2
FlatWithEdges
 70
     1
177
     2
291
     1
 71
     2
176
     1
 72
     1
176
     1
 73
     1
176
     1
 90
        2
176
     1
 40
0.6
176
     1
 41
30.0
176
     1
 63
     7
421
 16777215
176
     1
 74
     1
176
     1
 91
        0
176
     1
 64
     7
176
     1
 65
   257
176
     1
 75
     1
176
     1
175
     1
176
     1
 42
1.0
176
     1
 92
        0
176
     1
 66
   257
176
     1
 43
1.0
176
     1
 76
     1
176
     1
 77
     6
176
     1
 78
     2
176
     1
 67
     7
176
     1
 79
     5
176
     1
170
     0
176
     1
171
     0
176
     1
290
     0
176
     1
 93
       13
176
     1
 44
0.0
176
     1
173
     0
176
     1
1001
ACAD
1000
AcDbSavedByObjectVersion
1070
     0
  0
VISUALSTYLE
  5
1000020
102
{ACAD_XDICTIONARY
360
100018A
102
}
102
{ACAD_REACTORS
330
100001D
102
}
330
100001D
100
AcDbVisualStyle
  2
Gouraud
 70
     2
177
     2
291
     1
 71
     2
176
     1
 72
     2
176
     1
 73
     1
176
     1
 90
        2
176
     1
 40
0.6
176
     1
 41
30.0
176
     1
 63
     7
421
 16777215
176
     1
 74
     0
176
     1
 91
        0
176
     1
 64
     7
176
     1
 65
   257
176
     1
 75
     1
176
     1
175
     1
176
     1
 42
1.0
176
     1
 92
        0
176
     1
 66
     7
176
     1
 43
1.0
176
     1
 76
     1
176
     1
 77
     6
176
     1
 78
     2
176
     1
 67
     7
176
     1
 79
     5
176
     1
170
     0
176
     1
171
     0
176
     1
290
     0
176
     1
 93
       13
176
     1
 44
0.0
176
     1
173
     0
176
     1
1001
ACAD
1000
AcDbSavedByObjectVersion
1070
     0
  0
VISUALSTYLE
  5
1000021
102
{ACAD_XDICTIONARY
360
100018C
102
}
102
{ACAD_REACTORS
330
100001D
102
}
330
100001D
100
AcDbVisualStyle
  2
GouraudWithEdges
 70
     3
177
     2
291
     1
 71
     2
176
     1
 72
     2
176
     1
 73
     1
176
     1
 90
        2
176
     1
 40
0.6
176
     1
 41
30.0
176
     1
 63
     7
421
 16777215
176
     1
 74
     1
176
     1
 91
        0
176
     1
 64
     7
176
     1
 65
   257
176
     1
 75
     1
176
     1
175
     1
176
     1
 42
1.0
176
     1
 92
        0
176
     1
 66
   257
176
     1
 43
1.0
176
     1
 76
     1
176
     1
 77
     6
176
     1
 78
     2
176
     1
 67
     7
176
     1
 79
     5
176
     1
170
     0
176
     1
171
     0
176
     1
290
     0
176
     1
 93
       13
176
     1
 44
0.0
176
     1
173
     0
176
     1
1001
ACAD
1000
AcDbSavedByObjectVersion
1070
     0
  0
VISUALSTYLE
  5
1000025
102
{ACAD_XDICTIONARY
360
1000194
102
}
102
{ACAD_REACTORS
330
100001D
102
}
330
100001D
100
AcDbVisualStyle
  2
Hidden
 70
     6
177
     2
291
     0
 71
     1
176
     1
 72
     2
176
     1
 73
     2
176
     1
 90
        0
176
     1
 40
0.6
176
     1
 41
30.0
176
     1
 63
     7
421
 16777215
176
     1
 74
     2
176
     1
 91
        2
176
     1
 64
     7
176
     1
 65
   257
176
     1
 75
     2
176
     1
175
     1
176
     1
 42
40.0
176
     1
 92
        0
176
     1
 66
   257
176
     1
 43
1.0
176
     1
 76
     1
176
     1
 77
     6
176
     1
 78
     2
176
     1
 67
     7
176
     1
 79
     3
176
     1
170
     0
176
     1
171
     0
176
     1
290
     0
176
     1
 93
        1
176
     1
 44
0.0
176
     1
173
     0
176
     1
1001
ACAD
1000
AcDbSavedByObjectVersion
1070
     0
  0
VISUALSTYLE
  5
1000033
102
{ACAD_XDICTIONARY
360
10001B0
102
}
102
{ACAD_REACTORS
330
100001D
102
}
330
100001D
100
AcDbVisualStyle
  2
JitterOff
 70
    20
177
     2
291
     1
 71
     2
176
     0
 72
     2
176
     0
 73
     0
176
     0
 90
        0
176
     0
 40
0.6
176
     0
 41
30.0
176
     0
 63
     7
421
 16777215
176
     0
 74
     1
176
     0
 91
        4
176
     0
 64
     7
176
     0
 65
   257
176
     0
 75
     1
176
     0
175
     1
176
     0
 42
1.0
176
     0
 92
       10
176
     2
 66
     7
176
     0
 43
1.0
176
     0
 76
     1
176
     0
 77
     6
176
     0
 78
     2
176
     0
 67
     7
176
     0
 79
     5
176
     0
170
     0
176
     0
171
     0
176
     0
290
     0
176
     0
 93
        1
176
     0
 44
0.0
176
     0
173
     0
176
     0
1001
ACAD
1000
AcDbSavedByObjectVersion
1070
     0
  0
VISUALSTYLE
  5
100002B
102
{ACAD_XDICTIONARY
360
10001A0
102
}
102
{ACAD_REACTORS
330
100001D
102
}
330
100001D
100
AcDbVisualStyle
  2
Linepattern
 70
    14
177
     2
291
     1
 71
     2
176
     1
 72
     2
176
     1
 73
     0
176
     1
 90
        0
176
     1
 40
0.6
176
     1
 41
30.0
176
     1
 63
     7
421
 16777215
176
     1
 74
     1
176
     1
 91
        4
176
     1
 64
     7
176
     1
 65
   257
176
     1
 75
     7
176
     1
175
     7
176
     1
 42
1.0
176
     1
 92
        8
176
     1
 66
     7
176
     1
 43
1.0
176
     1
 76
     1
176
     1
 77
     6
176
     1
 78
     2
176
     1
 67
     7
176
     1
 79
     5
176
     1
170
     0
176
     1
171
     0
176
     1
290
     0
176
     1
 93
        1
176
     1
 44
0.0
176
     1
173
     0
176
     1
1001
ACAD
1000
AcDbSavedByObjectVersion
1070
     0
  0
VISUALSTYLE
  5
1000034
102
{ACAD_XDICTIONARY
360
10001B2
102
}
102
{ACAD_REACTORS
330
100001D
102
}
330
100001D
100
AcDbVisualStyle
  2
OverhangOff
 70
    21
177
     2
291
     1
 71
     2
176
     0
 72
     2
176
     0
 73
     0
176
     0
 90
        0
176
     0
 40
0.6
176
     0
 41
30.0
176
     0
 63
     7
421
 16777215
176
     0
 74
     1
176
     0
 91
        4
176
     0
 64
     7
176
     0
 65
   257
176
     0
 75
     1
176
     0
175
     1
176
     0
 42
1.0
176
     0
 92
        9
176
     2
 66
     7
176
     0
 43
1.0
176
     0
 76
     1
176
     0
 77
     6
176
     0
 78
     2
176
     0
 67
     7
176
     0
 79
     5
176
     0
170
     0
176
     0
171
     0
176
     0
290
     0
176
     0
 93
        1
176
     0
 44
0.0
176
     0
173
     0
176
     0
1001
ACAD
1000
AcDbSavedByObjectVersion
1070
     0
  0
VISUALSTYLE
  5
1000027
102
{ACAD_XDICTIONARY
360
1000198
102
}
102
{ACAD_REACTORS
330
100001D
102
}
330
100001D
100
AcDbVisualStyle
  2
Realistic
 70
     8
177
     2
291
     0
 71
     2
176
     1
 72
     3
176
     1
 73
     0
176
     1
 90
        2
176
     1
 40
0.6
176
     1
 41
30.0
176
     1
 63
     7
421
 16777215
176
     1
 74
     0
176
     1
 91
        0
176
     1
 64
     7
176
     1
 65
   257
176
     1
 75
     1
176
     1
175
     1
176
     1
 42
1.0
176
     1
 92
        8
176
     1
 66
   257
176
     1
 43
1.0
176
     1
 76
     1
176
     1
 77
     6
176
     1
 78
     2
176
     1
 67
     7
176
     1
 79
     3
176
     1
170
     0
176
     1
171
     0
176
     1
290
     0
176
     1
 93
       13
176
     1
 44
0.0
176
     1
173
     0
176
     1
1001
ACAD
1000
AcDbSavedByObjectVersion
1070
     0
  0
VISUALSTYLE
  5
1000032
102
{ACAD_XDICTIONARY
360
10001AE
102
}
102
{ACAD_REACTORS
330
100001D
102
}
330
100001D
100
AcDbVisualStyle
  2
Shaded
 70
    27
177
     2
291
     0
 71
     2
176
     1
 72
     2
176
     1
 73
     1
176
     1
 90
        2
176
     1
 40
0.6
176
     1
 41
30.0
176
     1
 63
     7
421
 16777215
176
     1
 74
     0
176
     1
 91
        4
176
     1
 64
     7
176
     1
 65
   257
176
     1
 75
     1
176
     1
175
     1
176
     1
 42
1.0
176
     1
 92
        8
176
     1
 66
   257
176
     1
 43
1.0
176
     1
 76
     1
176
     1
 77
     6
176
     1
 78
     2
176
     1
 67
     8
425
  7895160
176
     1
 79
     3
176
     1
170
     0
176
     1
171
     0
176
     1
290
     0
176
     1
 93
        5
176
     1
 44
0.0
176
     1
173
     0
176
     1
1001
ACAD
1000
AcDbSavedByObjectVersion
1070
     0
  0
VISUALSTYLE
  5
1000031
102
{ACAD_XDICTIONARY
360
10001AC
102
}
102
{ACAD_REACTORS
330
100001D
102
}
330
100001D
100
AcDbVisualStyle
  2
Shaded with edges
 70
    26
177
     2
291
     0
 71
     2
176
     1
 72
     2
176
     1
 73
     1
176
     1
 90
        2
176
     1
 40
0.6
176
     1
 41
30.0
176
     1
 63
     7
421
 16777215
176
     1
 74
     1
176
     1
 91
       10
176
     1
 64
     7
176
     1
 65
   257
176
     1
 75
     2
176
     1
175
     1
176
     1
 42
1.0
176
     1
 92
        8
176
     1
 66
   257
176
     1
 43
1.0
176
     1
 76
     1
176
     1
 77
     6
176
     1
 78
     2
176
     1
 67
     7
176
     1
 79
     3
176
     1
170
     0
176
     1
171
     0
176
     1
290
     0
176
     1
 93
        5
176
     1
 44
0.0
176
     1
173
     0
176
     1
1001
ACAD
1000
AcDbSavedByObjectVersion
1070
     0
  0
VISUALSTYLE
  5
100002E
102
{ACAD_XDICTIONARY
360
10001A6
102
}
102
{ACAD_REACTORS
330
100001D
102
}
330
100001D
100
AcDbVisualStyle
  2
Shades of Gray
 70
    23
177
     2
291
     0
 71
     2
176
     1
 72
     2
176
     1
 73
     3
176
     1
 90
        0
176
     1
 40
0.6
176
     1
 41
30.0
176
     1
 63
     7
421
 16777215
176
     1
 74
     2
176
     1
 91
        2
176
     1
 64
     7
176
     1
 65
     7
176
     1
 75
     1
176
     1
175
     1
176
     1
 42
40.0
176
     1
 92
        8
176
     1
 66
     7
176
     1
 43
1.0
176
     1
 76
     1
176
     1
 77
     6
176
     1
 78
     2
176
     1
 67
     7
176
     1
 79
     3
176
     1
170
     0
176
     1
171
     0
176
     1
290
     0
176
     1
 93
        1
176
     1
 44
0.0
176
     1
173
     0
176
     1
1001
ACAD
1000
AcDbSavedByObjectVersion
1070
     0
  0
VISUALSTYLE
  5
100002F
102
{ACAD_XDICTIONARY
360
10001A8
102
}
102
{ACAD_REACTORS
330
100001D
102
}
330
100001D
100
AcDbVisualStyle
  2
Sketchy
 70
    24
177
     2
291
     0
 71
     1
176
     1
 72
     2
176
     1
 73
     2
176
     1
 90
        0
176
     1
 40
0.6
176
     1
 41
30.0
176
     1
 63
     7
421
 16777215
176
     1
 74
     2
176
     1
 91
        2
176
     1
 64
     7
176
     1
 65
     7
176
     1
 75
     1
176
     1
175
     1
176
     1
 42
40.0
176
     1
 92
       11
176
     1
 66
     7
176
     1
 43
1.0
176
     1
 76
     1
176
     1
 77
     6
176
     1
 78
     2
176
     1
 67
     7
176
     1
 79
     6
176
     1
170
     0
176
     1
171
     0
176
     1
290
     0
176
     1
 93
        1
176
     1
 44
0.0
176
     1
173
     0
176
     1
1001
ACAD
1000
AcDbSavedByObjectVersion
1070
     0
  0
VISUALSTYLE
  5
100002A
102
{ACAD_XDICTIONARY
360
100019E
102
}
102
{ACAD_REACTORS
330
100001D
102
}
330
100001D
100
AcDbVisualStyle
  2
Thicken
 70
    13
177
     2
291
     1
 71
     2
176
     1
 72
     2
176
     1
 73
     0
176
     1
 90
        0
176
     1
 40
0.6
176
     1
 41
30.0
176
     1
 63
     7
421
 16777215
176
     1
 74
     1
176
     1
 91
        4
176
     1
 64
     7
176
     1
 65
   257
176
     1
 75
     1
176
     1
175
     1
176
     1
 42
1.0
176
     1
 92
       12
176
     1
 66
     7
176
     1
 43
1.0
176
     1
 76
     1
176
     1
 77
     6
176
     1
 78
     2
176
     1
 67
     7
176
     1
 79
     5
176
     1
170
     0
176
     1
171
     0
176
     1
290
     0
176
     1
 93
        1
176
     1
 44
0.0
176
     1
173
     0
176
     1
1001
ACAD
1000
AcDbSavedByObjectVersion
1070
     0
  0
VISUALSTYLE
  5
1000024
102
{ACAD_XDICTIONARY
360
1000192
102
}
102
{ACAD_REACTORS
330
100001D
102
}
330
100001D
100
AcDbVisualStyle
  2
Wireframe
 70
     5
177
     2
291
     0
 71
     0
176
     1
 72
     2
176
     1
 73
     0
176
     1
 90
        0
176
     1
 40
0.6
176
     1
 41
30.0
176
     1
 63
     7
421
 16777215
176
     1
 74
     1
176
     1
 91
        4
176
     1
 64
     7
176
     1
 65
   257
176
     1
 75
     1
176
     1
175
     1
176
     1
 42
1.0
176
     1
 92
        0
176
     1
 66
   257
176
     1
 43
1.0
176
     1
 76
     1
176
     1
 77
     6
176
     1
 78
     2
176
     1
 67
     7
176
     1
 79
     3
176
     1
170
     0
176
     1
171
     0
176
     1
290
     0
176
     1
 93
        1
176
     1
 44
0.0
176
     1
173
     0
176
     1
1001
ACAD
1000
AcDbSavedByObjectVersion
1070
     0
  0
VISUALSTYLE
  5
1000030
102
{ACAD_XDICTIONARY
360
10001AA
102
}
102
{ACAD_REACTORS
330
100001D
102
}
330
100001D
100
AcDbVisualStyle
  2
X-Ray
 70
    25
177
     2
291
     0
 71
     2
176
     1
 72
     2
176
     1
 73
     1
176
     1
 90
        1
176
     1
 40
0.5
176
     1
 41
30.0
176
     1
 63
     7
421
 16777215
176
     1
 74
     1
176
     1
 91
        0
176
     1
 64
     7
176
     1
 65
   257
176
     1
 75
     1
176
     1
175
     1
176
     1
 42
1.0
176
     1
 92
        8
176
     1
 66
     7
176
     1
 43
1.0
176
     1
 76
     1
176
     1
 77
     6
176
     1
 78
     2
176
     1
 67
     7
176
     1
 79
     3
176
     1
170
     0
176
     1
171
     0
176
     1
290
     0
176
     1
 93
       13
176
     1
 44
0.0
176
     1
173
     0
176
     1
1001
ACAD
1000
AcDbSavedByObjectVersion
1070
     0
  0
DICTIONARYVAR
  5
100017E
102
{ACAD_REACTORS
330
1000002
102
}
330
1000002
100
DictionaryVariables
280
     0
  1
1:1
  0
DICTIONARYVAR
  5
100017A
102
{ACAD_REACTORS
330
1000002
102
}
330
1000002
100
DictionaryVariables
280
     0
  1
STANDARD
  0
DICTIONARYVAR
  5
1000179
102
{ACAD_REACTORS
330
1000002
102
}
330
1000002
100
DictionaryVariables
280
     0
  1
STANDARD
  0
DICTIONARYVAR
  5
100017B
102
{ACAD_REACTORS
330
1000002
102
}
330
1000002
100
DictionaryVariables
280
     0
  1
Imperial24
  0
DICTIONARYVAR
  5
100017C
102
{ACAD_REACTORS
330
1000002
102
}
330
1000002
100
DictionaryVariables
280
     0
  1
Imperial24
  0
DICTIONARYVAR
  5
1000180
102
{ACAD_REACTORS
330
1000002
102
}
330
1000002
100
DictionaryVariables
280
     0
  1
1
  0
DICTIONARYVAR
  5
1000181
102
{ACAD_REACTORS
330
1000002
102
}
330
1000002
100
DictionaryVariables
280
     0
  1
15
  0
DICTIONARYVAR
  5
100017F
102
{ACAD_REACTORS
330
1000002
102
}
330
1000002
100
DictionaryVariables
280
     0
  1
0
  0
DICTIONARYVAR
  5
100017D
102
{ACAD_REACTORS
330
1000002
102
}
330
1000002
100
DictionaryVariables
280
     0
  1
0
  0
DICTIONARYVAR
  5
1000003
102
{ACAD_REACTORS
330
1000002
102
}
330
1000002
100
DictionaryVariables
280
     0
  1
0
  0
DICTIONARY
  5
100000E
330
100000D
100
AcDbDictionary
280
     1
281
     1
  3
BUMPTILE
360
1000010
  3
DIFFUSETILE
360
100000F
  3
OPACITYTILE
360
1000013
  3
REFLECTIONTILE
360
1000012
  3
REFRACTIONTILE
360
1000014
  3
SPECULARTILE
360
1000011
  0
DICTIONARY
  5
1000006
330
1000005
100
AcDbDictionary
280
     1
281
     1
  3
BUMPTILE
360
1000008
  3
DIFFUSETILE
360
1000007
  3
OPACITYTILE
360
100000B
  3
REFLECTIONTILE
360
100000A
  3
REFRACTIONTILE
360
100000C
  3
SPECULARTILE
360
1000009
  0
DICTIONARY
  5
1000016
330
1000015
100
AcDbDictionary
280
     1
281
     1
  3
BUMPTILE
360
1000018
  3
DIFFUSETILE
360
1000017
  3
OPACITYTILE
360
100001B
  3
REFLECTIONTILE
360
100001A
  3
REFRACTIONTILE
360
100001C
  3
SPECULARTILE
360
1000019
  0
DICTIONARY
  5
1000183
330
1000038
100
AcDbDictionary
280
     1
281
     1
  3
ACAD_ROUNDTRIP_2008_TABLESTYLE_CELLSTYLEMAP
360
1000184
  0
DICTIONARY
  5
1000190
330
1000023
100
AcDbDictionary
280
     1
281
     1
  3
ACAD_XREC_ROUNDTRIP
360
1000191
  0
DICTIONARY
  5
100018E
330
1000022
100
AcDbDictionary
280
     1
281
     1
  3
ACAD_XREC_ROUNDTRIP
360
100018F
  0
DICTIONARY
  5
100019C
330
1000029
100
AcDbDictionary
280
     1
281
     1
  3
ACAD_XREC_ROUNDTRIP
360
100019D
  0
DICTIONARY
  5
10001A4
330
100002D
100
AcDbDictionary
280
     1
281
     1
  3
ACAD_XREC_ROUNDTRIP
360
10001A5
  0
DICTIONARY
  5
1000196
330
1000026
100
AcDbDictionary
280
     1
281
     1
  3
ACAD_XREC_ROUNDTRIP
360
1000197
  0
DICTIONARY
  5
100019A
330
1000028
100
AcDbDictionary
280
     1
281
     1
  3
ACAD_XREC_ROUNDTRIP
360
100019B
  0
DICTIONARY
  5
10001B4
330
1000035
100
AcDbDictionary
280
     1
281
     1
  3
ACAD_XREC_ROUNDTRIP
360
10001B5
  0
DICTIONARY
  5
10001A2
330
100002C
100
AcDbDictionary
280
     1
281
     1
  3
ACAD_XREC_ROUNDTRIP
360
10001A3
  0
DICTIONARY
  5
1000186
330
100001E
100
AcDbDictionary
280
     1
281
     1
  3
ACAD_XREC_ROUNDTRIP
360
1000187
  0
DICTIONARY
  5
1000188
330
100001F
100
AcDbDictionary
280
     1
281
     1
  3
ACAD_XREC_ROUNDTRIP
360
1000189
  0
DICTIONARY
  5
100018A
330
1000020
100
AcDbDictionary
280
     1
281
     1
  3
ACAD_XREC_ROUNDTRIP
360
100018B
  0
DICTIONARY
  5
100018C
330
1000021
100
AcDbDictionary
280
     1
281
     1
  3
ACAD_XREC_ROUNDTRIP
360
100018D
  0
DICTIONARY
  5
1000194
330
1000025
100
AcDbDictionary
280
     1
281
     1
  3
ACAD_XREC_ROUNDTRIP
360
1000195
  0
DICTIONARY
  5
10001B0
330
1000033
100
AcDbDictionary
280
     1
281
     1
  3
ACAD_XREC_ROUNDTRIP
360
10001B1
  0
DICTIONARY
  5
10001A0
330
100002B
100
AcDbDictionary
280
     1
281
     1
  3
ACAD_XREC_ROUNDTRIP
360
10001A1
  0
DICTIONARY
  5
10001B2
330
1000034
100
AcDbDictionary
280
     1
281
     1
  3
ACAD_XREC_ROUNDTRIP
360
10001B3
  0
DICTIONARY
  5
1000198
330
1000027
100
AcDbDictionary
280
     1
281
     1
  3
ACAD_XREC_ROUNDTRIP
360
1000199
  0
DICTIONARY
  5
10001AE
330
1000032
100
AcDbDictionary
280
     1
281
     1
  3
ACAD_XREC_ROUNDTRIP
360
10001AF
  0
DICTIONARY
  5
10001AC
330
1000031
100
AcDbDictionary
280
     1
281
     1
  3
ACAD_XREC_ROUNDTRIP
360
10001AD
  0
DICTIONARY
  5
10001A6
330
100002E
100
AcDbDictionary
280
     1
281
     1
  3
ACAD_XREC_ROUNDTRIP
360
10001A7
  0
DICTIONARY
  5
10001A8
330
100002F
100
AcDbDictionary
280
     1
281
     1
  3
ACAD_XREC_ROUNDTRIP
360
10001A9
  0
DICTIONARY
  5
100019E
330
100002A
100
AcDbDictionary
280
     1
281
     1
  3
ACAD_XREC_ROUNDTRIP
360
100019F
  0
DICTIONARY
  5
1000192
330
1000024
100
AcDbDictionary
280
     1
281
     1
  3
ACAD_XREC_ROUNDTRIP
360
1000193
  0
DICTIONARY
  5
10001AA
330
1000030
100
AcDbDictionary
280
     1
281
     1
  3
ACAD_XREC_ROUNDTRIP
360
10001AB
  0
XRECORD
  5
1000010
102
{ACAD_REACTORS
330
100000E
102
}
330
100000E
100
AcDbXrecord
280
     1
270
     1
271
     1
  0
XRECORD
  5
100000F
102
{ACAD_REACTORS
330
100000E
102
}
330
100000E
100
AcDbXrecord
280
     1
270
     1
271
     1
  0
XRECORD
  5
1000013
102
{ACAD_REACTORS
330
100000E
102
}
330
100000E
100
AcDbXrecord
280
     1
270
     1
271
     1
  0
XRECORD
  5
1000012
102
{ACAD_REACTORS
330
100000E
102
}
330
100000E
100
AcDbXrecord
280
     1
270
     1
271
     1
  0
XRECORD
  5
1000014
102
{ACAD_REACTORS
330
100000E
102
}
330
100000E
100
AcDbXrecord
280
     1
270
     1
271
     1
  0
XRECORD
  5
1000011
102
{ACAD_REACTORS
330
100000E
102
}
330
100000E
100
AcDbXrecord
280
     1
270
     1
271
     1
  0
XRECORD
  5
1000008
102
{ACAD_REACTORS
330
1000006
102
}
330
1000006
100
AcDbXrecord
280
     1
270
     1
271
     1
  0
XRECORD
  5
1000007
102
{ACAD_REACTORS
330
1000006
102
}
330
1000006
100
AcDbXrecord
280
     1
270
     1
271
     1
  0
XRECORD
  5
100000B
102
{ACAD_REACTORS
330
1000006
102
}
330
1000006
100
AcDbXrecord
280
     1
270
     1
271
     1
  0
XRECORD
  5
100000A
102
{ACAD_REACTORS
330
1000006
102
}
330
1000006
100
AcDbXrecord
280
     1
270
     1
271
     1
  0
XRECORD
  5
100000C
102
{ACAD_REACTORS
330
1000006
102
}
330
1000006
100
AcDbXrecord
280
     1
270
     1
271
     1
  0
XRECORD
  5
1000009
102
{ACAD_REACTORS
330
1000006
102
}
330
1000006
100
AcDbXrecord
280
     1
270
     1
271
     1
  0
XRECORD
  5
1000018
102
{ACAD_REACTORS
330
1000016
102
}
330
1000016
100
AcDbXrecord
280
     1
270
     1
271
     1
  0
XRECORD
  5
1000017
102
{ACAD_REACTORS
330
1000016
102
}
330
1000016
100
AcDbXrecord
280
     1
270
     1
271
     1
  0
XRECORD
  5
100001B
102
{ACAD_REACTORS
330
1000016
102
}
330
1000016
100
AcDbXrecord
280
     1
270
     1
271
     1
  0
XRECORD
  5
100001A
102
{ACAD_REACTORS
330
1000016
102
}
330
1000016
100
AcDbXrecord
280
     1
270
     1
271
     1
  0
XRECORD
  5
100001C
102
{ACAD_REACTORS
330
1000016
102
}
330
1000016
100
AcDbXrecord
280
     1
270
     1
271
     1
  0
XRECORD
  5
1000019
102
{ACAD_REACTORS
330
1000016
102
}
330
1000016
100
AcDbXrecord
280
     1
270
     1
271
     1
  0
CELLSTYLEMAP
  5
1000184
102
{ACAD_REACTORS
330
1000183
102
}
330
1000183
100
AcDbCellStyleMap
 90
        3
300
CELLSTYLE
  1
TABLEFORMAT_BEGIN
 90
        5
170
     1
 91
        0
 92
    32768
 62
   257
 93
        1
300
CONTENTFORMAT
  1
CONTENTFORMAT_BEGIN
 90
        0
 91
        0
 92
      512
 93
        0
300

 40
0.0
140
1.0
 94
        5
 62
     0
340
C
144
0.25
309
CONTENTFORMAT_END
171
     0
 94
        0
309
TABLEFORMAT_END
  1
CELLSTYLE_BEGIN
 90
        1
 91
        1
300
_TITLE
309
CELLSTYLE_END
300
CELLSTYLE
  1
TABLEFORMAT_BEGIN
 90
        5
170
     1
 91
        0
 92
        0
 62
   257
 93
        1
300
CONTENTFORMAT
  1
CONTENTFORMAT_BEGIN
 90
        0
 91
        0
 92
      512
 93
        0
300

 40
0.0
140
1.0
 94
        5
 62
     0
340
C
144
0.18
309
CONTENTFORMAT_END
171
     0
 94
        0
309
TABLEFORMAT_END
  1
CELLSTYLE_BEGIN
 90
        2
 91
        1
300
_HEADER
309
CELLSTYLE_END
300
CELLSTYLE
  1
TABLEFORMAT_BEGIN
 90
        5
170
     1
 91
        0
 92
        0
 62
   257
 93
        1
300
CONTENTFORMAT
  1
CONTENTFORMAT_BEGIN
 90
        0
 91
        0
 92
      512
 93
        0
300

 40
0.0
140
1.0
 94
        2
 62
     0
340
C
144
0.18
309
CONTENTFORMAT_END
171
     0
 94
        0
309
TABLEFORMAT_END
  1
CELLSTYLE_BEGIN
 90
        3
 91
        2
300
_DATA
309
CELLSTYLE_END
  0
XRECORD
  5
1000191
102
{ACAD_REACTORS
330
1000190
102
}
330
1000190
100
AcDbXrecord
280
     1
102
RTVSPost2010Prop28
280
     1
102
RTVSPost2010PropOp28
 70
     1
102
RTVSPost2010Prop29
280
     1
102
RTVSPost2010PropOp29
 70
     1
102
RTVSPost2010Prop30
280
     0
102
RTVSPost2010PropOp30
 70
     1
102
RTVSPost2010Prop31
280
     0
102
RTVSPost2010PropOp31
 70
     1
102
RTVSPost2010Prop32
280
     0
102
RTVSPost2010PropOp32
 70
     1
102
RTVSPost2010Prop33
280
     0
102
RTVSPost2010PropOp33
 70
     1
102
RTVSPost2010Prop34
280
     0
102
RTVSPost2010PropOp34
 70
     1
102
RTVSPost2010Prop35
280
     0
102
RTVSPost2010PropOp35
 70
     1
102
RTVSPost2010Prop36
280
     0
102
RTVSPost2010PropOp36
 70
     1
102
RTVSPost2010Prop37
 90
       50
102
RTVSPost2010PropOp37
 70
     1
102
RTVSPost2010Prop38
140
0.0
102
RTVSPost2010PropOp38
 70
     1
102
RTVSPost2010Prop39
140
1.0
102
RTVSPost2010PropOp39
 70
     1
102
RTVSPost2010Prop40
 90
        0
102
RTVSPost2010PropOp40
 70
     1
102
RTVSPost2010Prop41ColorIndex
 90
       18
102
RTVSPost2010Prop41ColorRGB
 90
        0
102
RTVSPost2010PropOp41
 70
     1
102
RTVSPost2010Prop42
 90
       50
102
RTVSPost2010PropOp42
 70
     1
102
RTVSPost2010Prop43
 90
        3
102
RTVSPost2010PropOp43
 70
     1
102
RTVSPost2010Prop44ColorIndex
 90
        5
102
RTVSPost2010Prop44ColorRGB
 90
      255
102
RTVSPost2010PropOp44
 70
     1
102
RTVSPost2010Prop45
280
     0
102
RTVSPost2010PropOp45
 70
     1
102
RTVSPost2010Prop46
 90
       50
102
RTVSPost2010PropOp46
 70
     1
102
RTVSPost2010Prop47
 90
       50
102
RTVSPost2010PropOp47
 70
     1
102
RTVSPost2010Prop48
 90
       50
102
RTVSPost2010PropOp48
 70
     1
102
RTVSPost2010Prop49
280
     0
102
RTVSPost2010PropOp49
 70
     1
102
RTVSPost2010Prop50
 90
       50
102
RTVSPost2010PropOp50
 70
     1
102
RTVSPost2010Prop51ColorIndex
 90
      256
102
RTVSPost2010Prop51ColorRGB
 90
-16777216
102
RTVSPost2010PropOp51
 70
     0
102
RTVSPost2010Prop52
140
1.0
102
RTVSPost2010PropOp52
 70
     0
102
RTVSPost2010Prop53
 90
        2
102
RTVSPost2010PropOp53
 70
     1
102
RTVSPost2010Prop54
  1
strokes_ogs.tif
102
RTVSPost2010PropOp54
 70
     1
102
RTVSPost2010Prop55
280
     0
102
RTVSPost2010PropOp55
 70
     1
102
RTVSPost2010Prop56
140
1.0
102
RTVSPost2010PropOp56
 70
     1
102
RTVSPost2010Prop57
140
1.0
102
RTVSPost2010PropOp57
 70
     1
  0
XRECORD
  5
100018F
102
{ACAD_REACTORS
330
100018E
102
}
330
100018E
100
AcDbXrecord
280
     1
102
RTVSPost2010Prop28
280
     0
102
RTVSPost2010PropOp28
 70
     1
102
RTVSPost2010Prop29
280
     1
102
RTVSPost2010PropOp29
 70
     1
102
RTVSPost2010Prop30
280
     1
102
RTVSPost2010PropOp30
 70
     1
102
RTVSPost2010Prop31
280
     0
102
RTVSPost2010PropOp31
 70
     1
102
RTVSPost2010Prop32
280
     0
102
RTVSPost2010PropOp32
 70
     1
102
RTVSPost2010Prop33
280
     0
102
RTVSPost2010PropOp33
 70
     1
102
RTVSPost2010Prop34
280
     0
102
RTVSPost2010PropOp34
 70
     1
102
RTVSPost2010Prop35
280
     0
102
RTVSPost2010PropOp35
 70
     1
102
RTVSPost2010Prop36
280
     0
102
RTVSPost2010PropOp36
 70
     1
102
RTVSPost2010Prop37
 90
       50
102
RTVSPost2010PropOp37
 70
     1
102
RTVSPost2010Prop38
140
0.0
102
RTVSPost2010PropOp38
 70
     1
102
RTVSPost2010Prop39
140
1.0
102
RTVSPost2010PropOp39
 70
     1
102
RTVSPost2010Prop40
 90
        0
102
RTVSPost2010PropOp40
 70
     1
102
RTVSPost2010Prop41ColorIndex
 90
       18
102
RTVSPost2010Prop41ColorRGB
 90
        0
102
RTVSPost2010PropOp41
 70
     1
102
RTVSPost2010Prop42
 90
       50
102
RTVSPost2010PropOp42
 70
     1
102
RTVSPost2010Prop43
 90
        3
102
RTVSPost2010PropOp43
 70
     1
102
RTVSPost2010Prop44ColorIndex
 90
        5
102
RTVSPost2010Prop44ColorRGB
 90
      255
102
RTVSPost2010PropOp44
 70
     1
102
RTVSPost2010Prop45
280
     0
102
RTVSPost2010PropOp45
 70
     1
102
RTVSPost2010Prop46
 90
       50
102
RTVSPost2010PropOp46
 70
     1
102
RTVSPost2010Prop47
 90
       50
102
RTVSPost2010PropOp47
 70
     1
102
RTVSPost2010Prop48
 90
       50
102
RTVSPost2010PropOp48
 70
     1
102
RTVSPost2010Prop49
280
     0
102
RTVSPost2010PropOp49
 70
     1
102
RTVSPost2010Prop50
 90
       50
102
RTVSPost2010PropOp50
 70
     1
102
RTVSPost2010Prop51ColorIndex
 90
      256
102
RTVSPost2010Prop51ColorRGB
 90
-16777216
102
RTVSPost2010PropOp51
 70
     0
102
RTVSPost2010Prop52
140
1.0
102
RTVSPost2010PropOp52
 70
     0
102
RTVSPost2010Prop53
 90
        2
102
RTVSPost2010PropOp53
 70
     1
102
RTVSPost2010Prop54
  1
strokes_ogs.tif
102
RTVSPost2010PropOp54
 70
     1
102
RTVSPost2010Prop55
280
     0
102
RTVSPost2010PropOp55
 70
     1
102
RTVSPost2010Prop56
140
1.0
102
RTVSPost2010PropOp56
 70
     1
102
RTVSPost2010Prop57
140
1.0
102
RTVSPost2010PropOp57
 70
     1
  0
XRECORD
  5
100019D
102
{ACAD_REACTORS
330
100019C
102
}
330
100019C
100
AcDbXrecord
280
     1
102
RTVSPost2010Prop28
280
     0
102
RTVSPost2010PropOp28
 70
     1
102
RTVSPost2010Prop29
280
     1
102
RTVSPost2010PropOp29
 70
     1
102
RTVSPost2010Prop30
280
     1
102
RTVSPost2010PropOp30
 70
     1
102
RTVSPost2010Prop31
280
     0
102
RTVSPost2010PropOp31
 70
     1
102
RTVSPost2010Prop32
280
     0
102
RTVSPost2010PropOp32
 70
     1
102
RTVSPost2010Prop33
280
     0
102
RTVSPost2010PropOp33
 70
     1
102
RTVSPost2010Prop34
280
     0
102
RTVSPost2010PropOp34
 70
     1
102
RTVSPost2010Prop35
280
     0
102
RTVSPost2010PropOp35
 70
     1
102
RTVSPost2010Prop36
280
     0
102
RTVSPost2010PropOp36
 70
     1
102
RTVSPost2010Prop37
 90
       50
102
RTVSPost2010PropOp37
 70
     1
102
RTVSPost2010Prop38
140
0.0
102
RTVSPost2010PropOp38
 70
     1
102
RTVSPost2010Prop39
140
1.0
102
RTVSPost2010PropOp39
 70
     1
102
RTVSPost2010Prop40
 90
        0
102
RTVSPost2010PropOp40
 70
     1
102
RTVSPost2010Prop41ColorIndex
 90
       18
102
RTVSPost2010Prop41ColorRGB
 90
        0
102
RTVSPost2010PropOp41
 70
     1
102
RTVSPost2010Prop42
 90
       50
102
RTVSPost2010PropOp42
 70
     1
102
RTVSPost2010Prop43
 90
        3
102
RTVSPost2010PropOp43
 70
     1
102
RTVSPost2010Prop44ColorIndex
 90
        5
102
RTVSPost2010Prop44ColorRGB
 90
      255
102
RTVSPost2010PropOp44
 70
     1
102
RTVSPost2010Prop45
280
     0
102
RTVSPost2010PropOp45
 70
     1
102
RTVSPost2010Prop46
 90
       50
102
RTVSPost2010PropOp46
 70
     1
102
RTVSPost2010Prop47
 90
       50
102
RTVSPost2010PropOp47
 70
     1
102
RTVSPost2010Prop48
 90
       50
102
RTVSPost2010PropOp48
 70
     1
102
RTVSPost2010Prop49
280
     0
102
RTVSPost2010PropOp49
 70
     1
102
RTVSPost2010Prop50
 90
       50
102
RTVSPost2010PropOp50
 70
     1
102
RTVSPost2010Prop51ColorIndex
 90
      256
102
RTVSPost2010Prop51ColorRGB
 90
-16777216
102
RTVSPost2010PropOp51
 70
     0
102
RTVSPost2010Prop52
140
1.0
102
RTVSPost2010PropOp52
 70
     0
102
RTVSPost2010Prop53
 90
        2
102
RTVSPost2010PropOp53
 70
     1
102
RTVSPost2010Prop54
  1
strokes_ogs.tif
102
RTVSPost2010PropOp54
 70
     1
102
RTVSPost2010Prop55
280
     0
102
RTVSPost2010PropOp55
 70
     1
102
RTVSPost2010Prop56
140
1.0
102
RTVSPost2010PropOp56
 70
     1
102
RTVSPost2010Prop57
140
1.0
102
RTVSPost2010PropOp57
 70
     1
  0
XRECORD
  5
10001A5
102
{ACAD_REACTORS
330
10001A4
102
}
330
10001A4
100
AcDbXrecord
280
     1
102
RTVSPost2010Prop28
280
     0
102
RTVSPost2010PropOp28
 70
     1
102
RTVSPost2010Prop29
280
     1
102
RTVSPost2010PropOp29
 70
     1
102
RTVSPost2010Prop30
280
     1
102
RTVSPost2010PropOp30
 70
     1
102
RTVSPost2010Prop31
280
     0
102
RTVSPost2010PropOp31
 70
     1
102
RTVSPost2010Prop32
280
     0
102
RTVSPost2010PropOp32
 70
     1
102
RTVSPost2010Prop33
280
     0
102
RTVSPost2010PropOp33
 70
     1
102
RTVSPost2010Prop34
280
     0
102
RTVSPost2010PropOp34
 70
     1
102
RTVSPost2010Prop35
280
     0
102
RTVSPost2010PropOp35
 70
     1
102
RTVSPost2010Prop36
280
     0
102
RTVSPost2010PropOp36
 70
     1
102
RTVSPost2010Prop37
 90
       50
102
RTVSPost2010PropOp37
 70
     1
102
RTVSPost2010Prop38
140
0.0
102
RTVSPost2010PropOp38
 70
     1
102
RTVSPost2010Prop39
140
1.0
102
RTVSPost2010PropOp39
 70
     1
102
RTVSPost2010Prop40
 90
        0
102
RTVSPost2010PropOp40
 70
     1
102
RTVSPost2010Prop41ColorIndex
 90
       18
102
RTVSPost2010Prop41ColorRGB
 90
        0
102
RTVSPost2010PropOp41
 70
     1
102
RTVSPost2010Prop42
 90
       50
102
RTVSPost2010PropOp42
 70
     1
102
RTVSPost2010Prop43
 90
        3
102
RTVSPost2010PropOp43
 70
     1
102
RTVSPost2010Prop44ColorIndex
 90
        5
102
RTVSPost2010Prop44ColorRGB
 90
      255
102
RTVSPost2010PropOp44
 70
     1
102
RTVSPost2010Prop45
280
     0
102
RTVSPost2010PropOp45
 70
     1
102
RTVSPost2010Prop46
 90
       50
102
RTVSPost2010PropOp46
 70
     1
102
RTVSPost2010Prop47
 90
       50
102
RTVSPost2010PropOp47
 70
     1
102
RTVSPost2010Prop48
 90
       50
102
RTVSPost2010PropOp48
 70
     1
102
RTVSPost2010Prop49
280
     0
102
RTVSPost2010PropOp49
 70
     1
102
RTVSPost2010Prop50
 90
       50
102
RTVSPost2010PropOp50
 70
     1
102
RTVSPost2010Prop51ColorIndex
 90
      256
102
RTVSPost2010Prop51ColorRGB
 90
-16777216
102
RTVSPost2010PropOp51
 70
     0
102
RTVSPost2010Prop52
140
1.0
102
RTVSPost2010PropOp52
 70
     0
102
RTVSPost2010Prop53
 90
        2
102
RTVSPost2010PropOp53
 70
     1
102
RTVSPost2010Prop54
  1
strokes_ogs.tif
102
RTVSPost2010PropOp54
 70
     1
102
RTVSPost2010Prop55
280
     0
102
RTVSPost2010PropOp55
 70
     1
102
RTVSPost2010Prop56
140
1.0
102
RTVSPost2010PropOp56
 70
     1
102
RTVSPost2010Prop57
140
1.0
102
RTVSPost2010PropOp57
 70
     1
  0
XRECORD
  5
1000197
102
{ACAD_REACTORS
330
1000196
102
}
330
1000196
100
AcDbXrecord
280
     1
102
RTVSPost2010Prop28
280
     0
102
RTVSPost2010PropOp28
 70
     1
102
RTVSPost2010Prop29
280
     1
102
RTVSPost2010PropOp29
 70
     1
102
RTVSPost2010Prop30
280
     1
102
RTVSPost2010PropOp30
 70
     1
102
RTVSPost2010Prop31
280
     0
102
RTVSPost2010PropOp31
 70
     1
102
RTVSPost2010Prop32
280
     0
102
RTVSPost2010PropOp32
 70
     1
102
RTVSPost2010Prop33
280
     0
102
RTVSPost2010PropOp33
 70
     1
102
RTVSPost2010Prop34
280
     0
102
RTVSPost2010PropOp34
 70
     1
102
RTVSPost2010Prop35
280
     0
102
RTVSPost2010PropOp35
 70
     1
102
RTVSPost2010Prop36
280
     0
102
RTVSPost2010PropOp36
 70
     1
102
RTVSPost2010Prop37
 90
       50
102
RTVSPost2010PropOp37
 70
     1
102
RTVSPost2010Prop38
140
0.0
102
RTVSPost2010PropOp38
 70
     1
102
RTVSPost2010Prop39
140
1.0
102
RTVSPost2010PropOp39
 70
     1
102
RTVSPost2010Prop40
 90
        0
102
RTVSPost2010PropOp40
 70
     1
102
RTVSPost2010Prop41ColorIndex
 90
       18
102
RTVSPost2010Prop41ColorRGB
 90
        0
102
RTVSPost2010PropOp41
 70
     1
102
RTVSPost2010Prop42
 90
       50
102
RTVSPost2010PropOp42
 70
     1
102
RTVSPost2010Prop43
 90
        3
102
RTVSPost2010PropOp43
 70
     1
102
RTVSPost2010Prop44ColorIndex
 90
        5
102
RTVSPost2010Prop44ColorRGB
 90
      255
102
RTVSPost2010PropOp44
 70
     1
102
RTVSPost2010Prop45
280
     0
102
RTVSPost2010PropOp45
 70
     1
102
RTVSPost2010Prop46
 90
       50
102
RTVSPost2010PropOp46
 70
     1
102
RTVSPost2010Prop47
 90
       50
102
RTVSPost2010PropOp47
 70
     1
102
RTVSPost2010Prop48
 90
       50
102
RTVSPost2010PropOp48
 70
     1
102
RTVSPost2010Prop49
280
     0
102
RTVSPost2010PropOp49
 70
     1
102
RTVSPost2010Prop50
 90
       50
102
RTVSPost2010PropOp50
 70
     1
102
RTVSPost2010Prop51ColorIndex
 90
      256
102
RTVSPost2010Prop51ColorRGB
 90
-16777216
102
RTVSPost2010PropOp51
 70
     0
102
RTVSPost2010Prop52
140
1.0
102
RTVSPost2010PropOp52
 70
     0
102
RTVSPost2010Prop53
 90
        2
102
RTVSPost2010PropOp53
 70
     1
102
RTVSPost2010Prop54
  1
strokes_ogs.tif
102
RTVSPost2010PropOp54
 70
     1
102
RTVSPost2010Prop55
280
     0
102
RTVSPost2010PropOp55
 70
     1
102
RTVSPost2010Prop56
140
1.0
102
RTVSPost2010PropOp56
 70
     1
102
RTVSPost2010Prop57
140
1.0
102
RTVSPost2010PropOp57
 70
     1
  0
XRECORD
  5
100019B
102
{ACAD_REACTORS
330
100019A
102
}
330
100019A
100
AcDbXrecord
280
     1
102
RTVSPost2010Prop28
280
     0
102
RTVSPost2010PropOp28
 70
     1
102
RTVSPost2010Prop29
280
     1
102
RTVSPost2010PropOp29
 70
     1
102
RTVSPost2010Prop30
280
     1
102
RTVSPost2010PropOp30
 70
     1
102
RTVSPost2010Prop31
280
     0
102
RTVSPost2010PropOp31
 70
     1
102
RTVSPost2010Prop32
280
     0
102
RTVSPost2010PropOp32
 70
     1
102
RTVSPost2010Prop33
280
     0
102
RTVSPost2010PropOp33
 70
     1
102
RTVSPost2010Prop34
280
     0
102
RTVSPost2010PropOp34
 70
     1
102
RTVSPost2010Prop35
280
     0
102
RTVSPost2010PropOp35
 70
     1
102
RTVSPost2010Prop36
280
     0
102
RTVSPost2010PropOp36
 70
     1
102
RTVSPost2010Prop37
 90
       50
102
RTVSPost2010PropOp37
 70
     1
102
RTVSPost2010Prop38
140
0.0
102
RTVSPost2010PropOp38
 70
     1
102
RTVSPost2010Prop39
140
1.0
102
RTVSPost2010PropOp39
 70
     1
102
RTVSPost2010Prop40
 90
        0
102
RTVSPost2010PropOp40
 70
     1
102
RTVSPost2010Prop41ColorIndex
 90
       18
102
RTVSPost2010Prop41ColorRGB
 90
        0
102
RTVSPost2010PropOp41
 70
     1
102
RTVSPost2010Prop42
 90
       50
102
RTVSPost2010PropOp42
 70
     1
102
RTVSPost2010Prop43
 90
        3
102
RTVSPost2010PropOp43
 70
     1
102
RTVSPost2010Prop44ColorIndex
 90
        5
102
RTVSPost2010Prop44ColorRGB
 90
      255
102
RTVSPost2010PropOp44
 70
     1
102
RTVSPost2010Prop45
280
     0
102
RTVSPost2010PropOp45
 70
     1
102
RTVSPost2010Prop46
 90
       50
102
RTVSPost2010PropOp46
 70
     1
102
RTVSPost2010Prop47
 90
       50
102
RTVSPost2010PropOp47
 70
     1
102
RTVSPost2010Prop48
 90
       50
102
RTVSPost2010PropOp48
 70
     1
102
RTVSPost2010Prop49
280
     0
102
RTVSPost2010PropOp49
 70
     1
102
RTVSPost2010Prop50
 90
       50
102
RTVSPost2010PropOp50
 70
     1
102
RTVSPost2010Prop51ColorIndex
 90
      256
102
RTVSPost2010Prop51ColorRGB
 90
-16777216
102
RTVSPost2010PropOp51
 70
     0
102
RTVSPost2010Prop52
140
1.0
102
RTVSPost2010PropOp52
 70
     0
102
RTVSPost2010Prop53
 90
        2
102
RTVSPost2010PropOp53
 70
     1
102
RTVSPost2010Prop54
  1
strokes_ogs.tif
102
RTVSPost2010PropOp54
 70
     1
102
RTVSPost2010Prop55
280
     0
102
RTVSPost2010PropOp55
 70
     1
102
RTVSPost2010Prop56
140
1.0
102
RTVSPost2010PropOp56
 70
     1
102
RTVSPost2010Prop57
140
1.0
102
RTVSPost2010PropOp57
 70
     1
  0
XRECORD
  5
10001B5
102
{ACAD_REACTORS
330
10001B4
102
}
330
10001B4
100
AcDbXrecord
280
     1
102
RTVSPost2010Prop28
280
     0
102
RTVSPost2010PropOp28
 70
     1
102
RTVSPost2010Prop29
280
     1
102
RTVSPost2010PropOp29
 70
     1
102
RTVSPost2010Prop30
280
     1
102
RTVSPost2010PropOp30
 70
     1
102
RTVSPost2010Prop31
280
     0
102
RTVSPost2010PropOp31
 70
     1
102
RTVSPost2010Prop32
280
     0
102
RTVSPost2010PropOp32
 70
     1
102
RTVSPost2010Prop33
280
     0
102
RTVSPost2010PropOp33
 70
     1
102
RTVSPost2010Prop34
280
     0
102
RTVSPost2010PropOp34
 70
     1
102
RTVSPost2010Prop35
280
     0
102
RTVSPost2010PropOp35
 70
     1
102
RTVSPost2010Prop36
280
     0
102
RTVSPost2010PropOp36
 70
     1
102
RTVSPost2010Prop37
 90
       50
102
RTVSPost2010PropOp37
 70
     0
102
RTVSPost2010Prop38
140
0.0
102
RTVSPost2010PropOp38
 70
     0
102
RTVSPost2010Prop39
140
1.0
102
RTVSPost2010PropOp39
 70
     0
102
RTVSPost2010Prop40
 90
        0
102
RTVSPost2010PropOp40
 70
     0
102
RTVSPost2010Prop41ColorIndex
 90
       18
102
RTVSPost2010Prop41ColorRGB
 90
        0
102
RTVSPost2010PropOp41
 70
     0
102
RTVSPost2010Prop42
 90
       50
102
RTVSPost2010PropOp42
 70
     0
102
RTVSPost2010Prop43
 90
        3
102
RTVSPost2010PropOp43
 70
     0
102
RTVSPost2010Prop44ColorIndex
 90
        5
102
RTVSPost2010Prop44ColorRGB
 90
      255
102
RTVSPost2010PropOp44
 70
     0
102
RTVSPost2010Prop45
280
     0
102
RTVSPost2010PropOp45
 70
     1
102
RTVSPost2010Prop46
 90
       50
102
RTVSPost2010PropOp46
 70
     0
102
RTVSPost2010Prop47
 90
       50
102
RTVSPost2010PropOp47
 70
     0
102
RTVSPost2010Prop48
 90
       50
102
RTVSPost2010PropOp48
 70
     0
102
RTVSPost2010Prop49
280
     0
102
RTVSPost2010PropOp49
 70
     1
102
RTVSPost2010Prop50
 90
       50
102
RTVSPost2010PropOp50
 70
     0
102
RTVSPost2010Prop51ColorIndex
 90
      256
102
RTVSPost2010Prop51ColorRGB
 90
-16777216
102
RTVSPost2010PropOp51
 70
     0
102
RTVSPost2010Prop52
140
1.0
102
RTVSPost2010PropOp52
 70
     0
102
RTVSPost2010Prop53
 90
        2
102
RTVSPost2010PropOp53
 70
     0
102
RTVSPost2010Prop54
  1
strokes_ogs.tif
102
RTVSPost2010PropOp54
 70
     0
102
RTVSPost2010Prop55
280
     0
102
RTVSPost2010PropOp55
 70
     1
102
RTVSPost2010Prop56
140
1.0
102
RTVSPost2010PropOp56
 70
     0
102
RTVSPost2010Prop57
140
1.0
102
RTVSPost2010PropOp57
 70
     0
  0
XRECORD
  5
10001A3
102
{ACAD_REACTORS
330
10001A2
102
}
330
10001A2
100
AcDbXrecord
280
     1
102
RTVSPost2010Prop28
280
     0
102
RTVSPost2010PropOp28
 70
     1
102
RTVSPost2010Prop29
280
     1
102
RTVSPost2010PropOp29
 70
     1
102
RTVSPost2010Prop30
280
     1
102
RTVSPost2010PropOp30
 70
     1
102
RTVSPost2010Prop31
280
     0
102
RTVSPost2010PropOp31
 70
     1
102
RTVSPost2010Prop32
280
     0
102
RTVSPost2010PropOp32
 70
     1
102
RTVSPost2010Prop33
280
     0
102
RTVSPost2010PropOp33
 70
     1
102
RTVSPost2010Prop34
280
     0
102
RTVSPost2010PropOp34
 70
     1
102
RTVSPost2010Prop35
280
     0
102
RTVSPost2010PropOp35
 70
     1
102
RTVSPost2010Prop36
280
     0
102
RTVSPost2010PropOp36
 70
     1
102
RTVSPost2010Prop37
 90
       50
102
RTVSPost2010PropOp37
 70
     1
102
RTVSPost2010Prop38
140
0.0
102
RTVSPost2010PropOp38
 70
     1
102
RTVSPost2010Prop39
140
1.0
102
RTVSPost2010PropOp39
 70
     1
102
RTVSPost2010Prop40
 90
        0
102
RTVSPost2010PropOp40
 70
     1
102
RTVSPost2010Prop41ColorIndex
 90
       18
102
RTVSPost2010Prop41ColorRGB
 90
        0
102
RTVSPost2010PropOp41
 70
     1
102
RTVSPost2010Prop42
 90
       50
102
RTVSPost2010PropOp42
 70
     1
102
RTVSPost2010Prop43
 90
        3
102
RTVSPost2010PropOp43
 70
     1
102
RTVSPost2010Prop44ColorIndex
 90
        5
102
RTVSPost2010Prop44ColorRGB
 90
      255
102
RTVSPost2010PropOp44
 70
     1
102
RTVSPost2010Prop45
280
     0
102
RTVSPost2010PropOp45
 70
     1
102
RTVSPost2010Prop46
 90
       50
102
RTVSPost2010PropOp46
 70
     1
102
RTVSPost2010Prop47
 90
       50
102
RTVSPost2010PropOp47
 70
     1
102
RTVSPost2010Prop48
 90
       50
102
RTVSPost2010PropOp48
 70
     1
102
RTVSPost2010Prop49
280
     0
102
RTVSPost2010PropOp49
 70
     1
102
RTVSPost2010Prop50
 90
       50
102
RTVSPost2010PropOp50
 70
     1
102
RTVSPost2010Prop51ColorIndex
 90
      256
102
RTVSPost2010Prop51ColorRGB
 90
-16777216
102
RTVSPost2010PropOp51
 70
     0
102
RTVSPost2010Prop52
140
1.0
102
RTVSPost2010PropOp52
 70
     0
102
RTVSPost2010Prop53
 90
        2
102
RTVSPost2010PropOp53
 70
     1
102
RTVSPost2010Prop54
  1
strokes_ogs.tif
102
RTVSPost2010PropOp54
 70
     1
102
RTVSPost2010Prop55
280
     0
102
RTVSPost2010PropOp55
 70
     1
102
RTVSPost2010Prop56
140
1.0
102
RTVSPost2010PropOp56
 70
     1
102
RTVSPost2010Prop57
140
1.0
102
RTVSPost2010PropOp57
 70
     1
  0
XRECORD
  5
1000187
102
{ACAD_REACTORS
330
1000186
102
}
330
1000186
100
AcDbXrecord
280
     1
102
RTVSPost2010Prop28
280
     0
102
RTVSPost2010PropOp28
 70
     1
102
RTVSPost2010Prop29
280
     1
102
RTVSPost2010PropOp29
 70
     1
102
RTVSPost2010Prop30
280
     1
102
RTVSPost2010PropOp30
 70
     1
102
RTVSPost2010Prop31
280
     0
102
RTVSPost2010PropOp31
 70
     1
102
RTVSPost2010Prop32
280
     0
102
RTVSPost2010PropOp32
 70
     1
102
RTVSPost2010Prop33
280
     0
102
RTVSPost2010PropOp33
 70
     1
102
RTVSPost2010Prop34
280
     0
102
RTVSPost2010PropOp34
 70
     1
102
RTVSPost2010Prop35
280
     0
102
RTVSPost2010PropOp35
 70
     1
102
RTVSPost2010Prop36
280
     0
102
RTVSPost2010PropOp36
 70
     1
102
RTVSPost2010Prop37
 90
       50
102
RTVSPost2010PropOp37
 70
     1
102
RTVSPost2010Prop38
140
0.0
102
RTVSPost2010PropOp38
 70
     1
102
RTVSPost2010Prop39
140
1.0
102
RTVSPost2010PropOp39
 70
     1
102
RTVSPost2010Prop40
 90
        0
102
RTVSPost2010PropOp40
 70
     1
102
RTVSPost2010Prop41ColorIndex
 90
       18
102
RTVSPost2010Prop41ColorRGB
 90
        0
102
RTVSPost2010PropOp41
 70
     1
102
RTVSPost2010Prop42
 90
       50
102
RTVSPost2010PropOp42
 70
     1
102
RTVSPost2010Prop43
 90
        3
102
RTVSPost2010PropOp43
 70
     1
102
RTVSPost2010Prop44ColorIndex
 90
        5
102
RTVSPost2010Prop44ColorRGB
 90
      255
102
RTVSPost2010PropOp44
 70
     1
102
RTVSPost2010Prop45
280
     0
102
RTVSPost2010PropOp45
 70
     1
102
RTVSPost2010Prop46
 90
       50
102
RTVSPost2010PropOp46
 70
     1
102
RTVSPost2010Prop47
 90
       50
102
RTVSPost2010PropOp47
 70
     1
102
RTVSPost2010Prop48
 90
       50
102
RTVSPost2010PropOp48
 70
     1
102
RTVSPost2010Prop49
280
     0
102
RTVSPost2010PropOp49
 70
     1
102
RTVSPost2010Prop50
 90
       50
102
RTVSPost2010PropOp50
 70
     1
102
RTVSPost2010Prop51ColorIndex
 90
      256
102
RTVSPost2010Prop51ColorRGB
 90
-16777216
102
RTVSPost2010PropOp51
 70
     0
102
RTVSPost2010Prop52
140
1.0
102
RTVSPost2010PropOp52
 70
     0
102
RTVSPost2010Prop53
 90
        2
102
RTVSPost2010PropOp53
 70
     1
102
RTVSPost2010Prop54
  1
strokes_ogs.tif
102
RTVSPost2010PropOp54
 70
     1
102
RTVSPost2010Prop55
280
     0
102
RTVSPost2010PropOp55
 70
     1
102
RTVSPost2010Prop56
140
1.0
102
RTVSPost2010PropOp56
 70
     1
102
RTVSPost2010Prop57
140
1.0
102
RTVSPost2010PropOp57
 70
     1
  0
XRECORD
  5
1000189
102
{ACAD_REACTORS
330
1000188
102
}
330
1000188
100
AcDbXrecord
280
     1
102
RTVSPost2010Prop28
280
     0
102
RTVSPost2010PropOp28
 70
     1
102
RTVSPost2010Prop29
280
     1
102
RTVSPost2010PropOp29
 70
     1
102
RTVSPost2010Prop30
280
     1
102
RTVSPost2010PropOp30
 70
     1
102
RTVSPost2010Prop31
280
     0
102
RTVSPost2010PropOp31
 70
     1
102
RTVSPost2010Prop32
280
     0
102
RTVSPost2010PropOp32
 70
     1
102
RTVSPost2010Prop33
280
     0
102
RTVSPost2010PropOp33
 70
     1
102
RTVSPost2010Prop34
280
     0
102
RTVSPost2010PropOp34
 70
     1
102
RTVSPost2010Prop35
280
     0
102
RTVSPost2010PropOp35
 70
     1
102
RTVSPost2010Prop36
280
     0
102
RTVSPost2010PropOp36
 70
     1
102
RTVSPost2010Prop37
 90
       50
102
RTVSPost2010PropOp37
 70
     1
102
RTVSPost2010Prop38
140
0.0
102
RTVSPost2010PropOp38
 70
     1
102
RTVSPost2010Prop39
140
1.0
102
RTVSPost2010PropOp39
 70
     1
102
RTVSPost2010Prop40
 90
        0
102
RTVSPost2010PropOp40
 70
     1
102
RTVSPost2010Prop41ColorIndex
 90
       18
102
RTVSPost2010Prop41ColorRGB
 90
        0
102
RTVSPost2010PropOp41
 70
     1
102
RTVSPost2010Prop42
 90
       50
102
RTVSPost2010PropOp42
 70
     1
102
RTVSPost2010Prop43
 90
        3
102
RTVSPost2010PropOp43
 70
     1
102
RTVSPost2010Prop44ColorIndex
 90
        5
102
RTVSPost2010Prop44ColorRGB
 90
      255
102
RTVSPost2010PropOp44
 70
     1
102
RTVSPost2010Prop45
280
     0
102
RTVSPost2010PropOp45
 70
     1
102
RTVSPost2010Prop46
 90
       50
102
RTVSPost2010PropOp46
 70
     1
102
RTVSPost2010Prop47
 90
       50
102
RTVSPost2010PropOp47
 70
     1
102
RTVSPost2010Prop48
 90
       50
102
RTVSPost2010PropOp48
 70
     1
102
RTVSPost2010Prop49
280
     0
102
RTVSPost2010PropOp49
 70
     1
102
RTVSPost2010Prop50
 90
       50
102
RTVSPost2010PropOp50
 70
     1
102
RTVSPost2010Prop51ColorIndex
 90
      256
102
RTVSPost2010Prop51ColorRGB
 90
-16777216
102
RTVSPost2010PropOp51
 70
     0
102
RTVSPost2010Prop52
140
1.0
102
RTVSPost2010PropOp52
 70
     0
102
RTVSPost2010Prop53
 90
        2
102
RTVSPost2010PropOp53
 70
     1
102
RTVSPost2010Prop54
  1
strokes_ogs.tif
102
RTVSPost2010PropOp54
 70
     1
102
RTVSPost2010Prop55
280
     0
102
RTVSPost2010PropOp55
 70
     1
102
RTVSPost2010Prop56
140
1.0
102
RTVSPost2010PropOp56
 70
     1
102
RTVSPost2010Prop57
140
1.0
102
RTVSPost2010PropOp57
 70
     1
  0
XRECORD
  5
100018B
102
{ACAD_REACTORS
330
100018A
102
}
330
100018A
100
AcDbXrecord
280
     1
102
RTVSPost2010Prop28
280
     0
102
RTVSPost2010PropOp28
 70
     1
102
RTVSPost2010Prop29
280
     1
102
RTVSPost2010PropOp29
 70
     1
102
RTVSPost2010Prop30
280
     1
102
RTVSPost2010PropOp30
 70
     1
102
RTVSPost2010Prop31
280
     0
102
RTVSPost2010PropOp31
 70
     1
102
RTVSPost2010Prop32
280
     0
102
RTVSPost2010PropOp32
 70
     1
102
RTVSPost2010Prop33
280
     0
102
RTVSPost2010PropOp33
 70
     1
102
RTVSPost2010Prop34
280
     0
102
RTVSPost2010PropOp34
 70
     1
102
RTVSPost2010Prop35
280
     0
102
RTVSPost2010PropOp35
 70
     1
102
RTVSPost2010Prop36
280
     0
102
RTVSPost2010PropOp36
 70
     1
102
RTVSPost2010Prop37
 90
       50
102
RTVSPost2010PropOp37
 70
     1
102
RTVSPost2010Prop38
140
0.0
102
RTVSPost2010PropOp38
 70
     1
102
RTVSPost2010Prop39
140
1.0
102
RTVSPost2010PropOp39
 70
     1
102
RTVSPost2010Prop40
 90
        0
102
RTVSPost2010PropOp40
 70
     1
102
RTVSPost2010Prop41ColorIndex
 90
       18
102
RTVSPost2010Prop41ColorRGB
 90
        0
102
RTVSPost2010PropOp41
 70
     1
102
RTVSPost2010Prop42
 90
       50
102
RTVSPost2010PropOp42
 70
     1
102
RTVSPost2010Prop43
 90
        3
102
RTVSPost2010PropOp43
 70
     1
102
RTVSPost2010Prop44ColorIndex
 90
        5
102
RTVSPost2010Prop44ColorRGB
 90
      255
102
RTVSPost2010PropOp44
 70
     1
102
RTVSPost2010Prop45
280
     0
102
RTVSPost2010PropOp45
 70
     1
102
RTVSPost2010Prop46
 90
       50
102
RTVSPost2010PropOp46
 70
     1
102
RTVSPost2010Prop47
 90
       50
102
RTVSPost2010PropOp47
 70
     1
102
RTVSPost2010Prop48
 90
       50
102
RTVSPost2010PropOp48
 70
     1
102
RTVSPost2010Prop49
280
     0
102
RTVSPost2010PropOp49
 70
     1
102
RTVSPost2010Prop50
 90
       50
102
RTVSPost2010PropOp50
 70
     1
102
RTVSPost2010Prop51ColorIndex
 90
      256
102
RTVSPost2010Prop51ColorRGB
 90
-16777216
102
RTVSPost2010PropOp51
 70
     0
102
RTVSPost2010Prop52
140
1.0
102
RTVSPost2010PropOp52
 70
     0
102
RTVSPost2010Prop53
 90
        2
102
RTVSPost2010PropOp53
 70
     1
102
RTVSPost2010Prop54
  1
strokes_ogs.tif
102
RTVSPost2010PropOp54
 70
     1
102
RTVSPost2010Prop55
280
     0
102
RTVSPost2010PropOp55
 70
     1
102
RTVSPost2010Prop56
140
1.0
102
RTVSPost2010PropOp56
 70
     1
102
RTVSPost2010Prop57
140
1.0
102
RTVSPost2010PropOp57
 70
     1
  0
XRECORD
  5
100018D
102
{ACAD_REACTORS
330
100018C
102
}
330
100018C
100
AcDbXrecord
280
     1
102
RTVSPost2010Prop28
280
     0
102
RTVSPost2010PropOp28
 70
     1
102
RTVSPost2010Prop29
280
     1
102
RTVSPost2010PropOp29
 70
     1
102
RTVSPost2010Prop30
280
     1
102
RTVSPost2010PropOp30
 70
     1
102
RTVSPost2010Prop31
280
     0
102
RTVSPost2010PropOp31
 70
     1
102
RTVSPost2010Prop32
280
     0
102
RTVSPost2010PropOp32
 70
     1
102
RTVSPost2010Prop33
280
     0
102
RTVSPost2010PropOp33
 70
     1
102
RTVSPost2010Prop34
280
     0
102
RTVSPost2010PropOp34
 70
     1
102
RTVSPost2010Prop35
280
     0
102
RTVSPost2010PropOp35
 70
     1
102
RTVSPost2010Prop36
280
     0
102
RTVSPost2010PropOp36
 70
     1
102
RTVSPost2010Prop37
 90
       50
102
RTVSPost2010PropOp37
 70
     1
102
RTVSPost2010Prop38
140
0.0
102
RTVSPost2010PropOp38
 70
     1
102
RTVSPost2010Prop39
140
1.0
102
RTVSPost2010PropOp39
 70
     1
102
RTVSPost2010Prop40
 90
        0
102
RTVSPost2010PropOp40
 70
     1
102
RTVSPost2010Prop41ColorIndex
 90
       18
102
RTVSPost2010Prop41ColorRGB
 90
        0
102
RTVSPost2010PropOp41
 70
     1
102
RTVSPost2010Prop42
 90
       50
102
RTVSPost2010PropOp42
 70
     1
102
RTVSPost2010Prop43
 90
        3
102
RTVSPost2010PropOp43
 70
     1
102
RTVSPost2010Prop44ColorIndex
 90
        5
102
RTVSPost2010Prop44ColorRGB
 90
      255
102
RTVSPost2010PropOp44
 70
     1
102
RTVSPost2010Prop45
280
     0
102
RTVSPost2010PropOp45
 70
     1
102
RTVSPost2010Prop46
 90
       50
102
RTVSPost2010PropOp46
 70
     1
102
RTVSPost2010Prop47
 90
       50
102
RTVSPost2010PropOp47
 70
     1
102
RTVSPost2010Prop48
 90
       50
102
RTVSPost2010PropOp48
 70
     1
102
RTVSPost2010Prop49
280
     0
102
RTVSPost2010PropOp49
 70
     1
102
RTVSPost2010Prop50
 90
       50
102
RTVSPost2010PropOp50
 70
     1
102
RTVSPost2010Prop51ColorIndex
 90
      256
102
RTVSPost2010Prop51ColorRGB
 90
-16777216
102
RTVSPost2010PropOp51
 70
     0
102
RTVSPost2010Prop52
140
1.0
102
RTVSPost2010PropOp52
 70
     0
102
RTVSPost2010Prop53
 90
        2
102
RTVSPost2010PropOp53
 70
     1
102
RTVSPost2010Prop54
  1
strokes_ogs.tif
102
RTVSPost2010PropOp54
 70
     1
102
RTVSPost2010Prop55
280
     0
102
RTVSPost2010PropOp55
 70
     1
102
RTVSPost2010Prop56
140
1.0
102
RTVSPost2010PropOp56
 70
     1
102
RTVSPost2010Prop57
140
1.0
102
RTVSPost2010PropOp57
 70
     1
  0
XRECORD
  5
1000195
102
{ACAD_REACTORS
330
1000194
102
}
330
1000194
100
AcDbXrecord
280
     1
102
RTVSPost2010Prop28
280
     0
102
RTVSPost2010PropOp28
 70
     1
102
RTVSPost2010Prop29
280
     1
102
RTVSPost2010PropOp29
 70
     1
102
RTVSPost2010Prop30
280
     1
102
RTVSPost2010PropOp30
 70
     1
102
RTVSPost2010Prop31
280
     0
102
RTVSPost2010PropOp31
 70
     1
102
RTVSPost2010Prop32
280
     0
102
RTVSPost2010PropOp32
 70
     1
102
RTVSPost2010Prop33
280
     0
102
RTVSPost2010PropOp33
 70
     1
102
RTVSPost2010Prop34
280
     0
102
RTVSPost2010PropOp34
 70
     1
102
RTVSPost2010Prop35
280
     0
102
RTVSPost2010PropOp35
 70
     1
102
RTVSPost2010Prop36
280
     0
102
RTVSPost2010PropOp36
 70
     1
102
RTVSPost2010Prop37
 90
       50
102
RTVSPost2010PropOp37
 70
     1
102
RTVSPost2010Prop38
140
0.0
102
RTVSPost2010PropOp38
 70
     1
102
RTVSPost2010Prop39
140
1.0
102
RTVSPost2010PropOp39
 70
     1
102
RTVSPost2010Prop40
 90
        0
102
RTVSPost2010PropOp40
 70
     1
102
RTVSPost2010Prop41ColorIndex
 90
       18
102
RTVSPost2010Prop41ColorRGB
 90
        0
102
RTVSPost2010PropOp41
 70
     1
102
RTVSPost2010Prop42
 90
       50
102
RTVSPost2010PropOp42
 70
     1
102
RTVSPost2010Prop43
 90
        3
102
RTVSPost2010PropOp43
 70
     1
102
RTVSPost2010Prop44ColorIndex
 90
        5
102
RTVSPost2010Prop44ColorRGB
 90
      255
102
RTVSPost2010PropOp44
 70
     1
102
RTVSPost2010Prop45
280
     0
102
RTVSPost2010PropOp45
 70
     1
102
RTVSPost2010Prop46
 90
       50
102
RTVSPost2010PropOp46
 70
     1
102
RTVSPost2010Prop47
 90
       50
102
RTVSPost2010PropOp47
 70
     1
102
RTVSPost2010Prop48
 90
       50
102
RTVSPost2010PropOp48
 70
     1
102
RTVSPost2010Prop49
280
     0
102
RTVSPost2010PropOp49
 70
     1
102
RTVSPost2010Prop50
 90
       50
102
RTVSPost2010PropOp50
 70
     1
102
RTVSPost2010Prop51ColorIndex
 90
      256
102
RTVSPost2010Prop51ColorRGB
 90
-16777216
102
RTVSPost2010PropOp51
 70
     0
102
RTVSPost2010Prop52
140
1.0
102
RTVSPost2010PropOp52
 70
     0
102
RTVSPost2010Prop53
 90
        2
102
RTVSPost2010PropOp53
 70
     1
102
RTVSPost2010Prop54
  1
strokes_ogs.tif
102
RTVSPost2010PropOp54
 70
     1
102
RTVSPost2010Prop55
280
     0
102
RTVSPost2010PropOp55
 70
     1
102
RTVSPost2010Prop56
140
1.0
102
RTVSPost2010PropOp56
 70
     1
102
RTVSPost2010Prop57
140
1.0
102
RTVSPost2010PropOp57
 70
     1
  0
XRECORD
  5
10001B1
102
{ACAD_REACTORS
330
10001B0
102
}
330
10001B0
100
AcDbXrecord
280
     1
102
RTVSPost2010Prop28
280
     0
102
RTVSPost2010PropOp28
 70
     1
102
RTVSPost2010Prop29
280
     1
102
RTVSPost2010PropOp29
 70
     1
102
RTVSPost2010Prop30
280
     1
102
RTVSPost2010PropOp30
 70
     1
102
RTVSPost2010Prop31
280
     0
102
RTVSPost2010PropOp31
 70
     1
102
RTVSPost2010Prop32
280
     0
102
RTVSPost2010PropOp32
 70
     1
102
RTVSPost2010Prop33
280
     0
102
RTVSPost2010PropOp33
 70
     1
102
RTVSPost2010Prop34
280
     0
102
RTVSPost2010PropOp34
 70
     1
102
RTVSPost2010Prop35
280
     0
102
RTVSPost2010PropOp35
 70
     1
102
RTVSPost2010Prop36
280
     0
102
RTVSPost2010PropOp36
 70
     1
102
RTVSPost2010Prop37
 90
       50
102
RTVSPost2010PropOp37
 70
     0
102
RTVSPost2010Prop38
140
0.0
102
RTVSPost2010PropOp38
 70
     0
102
RTVSPost2010Prop39
140
1.0
102
RTVSPost2010PropOp39
 70
     0
102
RTVSPost2010Prop40
 90
        0
102
RTVSPost2010PropOp40
 70
     0
102
RTVSPost2010Prop41ColorIndex
 90
       18
102
RTVSPost2010Prop41ColorRGB
 90
        0
102
RTVSPost2010PropOp41
 70
     0
102
RTVSPost2010Prop42
 90
       50
102
RTVSPost2010PropOp42
 70
     0
102
RTVSPost2010Prop43
 90
        3
102
RTVSPost2010PropOp43
 70
     0
102
RTVSPost2010Prop44ColorIndex
 90
        5
102
RTVSPost2010Prop44ColorRGB
 90
      255
102
RTVSPost2010PropOp44
 70
     0
102
RTVSPost2010Prop45
280
     0
102
RTVSPost2010PropOp45
 70
     1
102
RTVSPost2010Prop46
 90
       50
102
RTVSPost2010PropOp46
 70
     0
102
RTVSPost2010Prop47
 90
       50
102
RTVSPost2010PropOp47
 70
     0
102
RTVSPost2010Prop48
 90
       50
102
RTVSPost2010PropOp48
 70
     0
102
RTVSPost2010Prop49
280
     0
102
RTVSPost2010PropOp49
 70
     1
102
RTVSPost2010Prop50
 90
       50
102
RTVSPost2010PropOp50
 70
     0
102
RTVSPost2010Prop51ColorIndex
 90
      256
102
RTVSPost2010Prop51ColorRGB
 90
-16777216
102
RTVSPost2010PropOp51
 70
     0
102
RTVSPost2010Prop52
140
1.0
102
RTVSPost2010PropOp52
 70
     0
102
RTVSPost2010Prop53
 90
        2
102
RTVSPost2010PropOp53
 70
     0
102
RTVSPost2010Prop54
  1
strokes_ogs.tif
102
RTVSPost2010PropOp54
 70
     0
102
RTVSPost2010Prop55
280
     0
102
RTVSPost2010PropOp55
 70
     1
102
RTVSPost2010Prop56
140
1.0
102
RTVSPost2010PropOp56
 70
     0
102
RTVSPost2010Prop57
140
1.0
102
RTVSPost2010PropOp57
 70
     0
  0
XRECORD
  5
10001A1
102
{ACAD_REACTORS
330
10001A0
102
}
330
10001A0
100
AcDbXrecord
280
     1
102
RTVSPost2010Prop28
280
     0
102
RTVSPost2010PropOp28
 70
     1
102
RTVSPost2010Prop29
280
     1
102
RTVSPost2010PropOp29
 70
     1
102
RTVSPost2010Prop30
280
     1
102
RTVSPost2010PropOp30
 70
     1
102
RTVSPost2010Prop31
280
     0
102
RTVSPost2010PropOp31
 70
     1
102
RTVSPost2010Prop32
280
     0
102
RTVSPost2010PropOp32
 70
     1
102
RTVSPost2010Prop33
280
     0
102
RTVSPost2010PropOp33
 70
     1
102
RTVSPost2010Prop34
280
     0
102
RTVSPost2010PropOp34
 70
     1
102
RTVSPost2010Prop35
280
     0
102
RTVSPost2010PropOp35
 70
     1
102
RTVSPost2010Prop36
280
     0
102
RTVSPost2010PropOp36
 70
     1
102
RTVSPost2010Prop37
 90
       50
102
RTVSPost2010PropOp37
 70
     1
102
RTVSPost2010Prop38
140
0.0
102
RTVSPost2010PropOp38
 70
     1
102
RTVSPost2010Prop39
140
1.0
102
RTVSPost2010PropOp39
 70
     1
102
RTVSPost2010Prop40
 90
        0
102
RTVSPost2010PropOp40
 70
     1
102
RTVSPost2010Prop41ColorIndex
 90
       18
102
RTVSPost2010Prop41ColorRGB
 90
        0
102
RTVSPost2010PropOp41
 70
     1
102
RTVSPost2010Prop42
 90
       50
102
RTVSPost2010PropOp42
 70
     1
102
RTVSPost2010Prop43
 90
        3
102
RTVSPost2010PropOp43
 70
     1
102
RTVSPost2010Prop44ColorIndex
 90
        5
102
RTVSPost2010Prop44ColorRGB
 90
      255
102
RTVSPost2010PropOp44
 70
     1
102
RTVSPost2010Prop45
280
     0
102
RTVSPost2010PropOp45
 70
     1
102
RTVSPost2010Prop46
 90
       50
102
RTVSPost2010PropOp46
 70
     1
102
RTVSPost2010Prop47
 90
       50
102
RTVSPost2010PropOp47
 70
     1
102
RTVSPost2010Prop48
 90
       50
102
RTVSPost2010PropOp48
 70
     1
102
RTVSPost2010Prop49
280
     0
102
RTVSPost2010PropOp49
 70
     1
102
RTVSPost2010Prop50
 90
       50
102
RTVSPost2010PropOp50
 70
     1
102
RTVSPost2010Prop51ColorIndex
 90
      256
102
RTVSPost2010Prop51ColorRGB
 90
-16777216
102
RTVSPost2010PropOp51
 70
     0
102
RTVSPost2010Prop52
140
1.0
102
RTVSPost2010PropOp52
 70
     0
102
RTVSPost2010Prop53
 90
        2
102
RTVSPost2010PropOp53
 70
     1
102
RTVSPost2010Prop54
  1
strokes_ogs.tif
102
RTVSPost2010PropOp54
 70
     1
102
RTVSPost2010Prop55
280
     0
102
RTVSPost2010PropOp55
 70
     1
102
RTVSPost2010Prop56
140
1.0
102
RTVSPost2010PropOp56
 70
     1
102
RTVSPost2010Prop57
140
1.0
102
RTVSPost2010PropOp57
 70
     1
  0
XRECORD
  5
10001B3
102
{ACAD_REACTORS
330
10001B2
102
}
330
10001B2
100
AcDbXrecord
280
     1
102
RTVSPost2010Prop28
280
     0
102
RTVSPost2010PropOp28
 70
     1
102
RTVSPost2010Prop29
280
     1
102
RTVSPost2010PropOp29
 70
     1
102
RTVSPost2010Prop30
280
     1
102
RTVSPost2010PropOp30
 70
     1
102
RTVSPost2010Prop31
280
     0
102
RTVSPost2010PropOp31
 70
     1
102
RTVSPost2010Prop32
280
     0
102
RTVSPost2010PropOp32
 70
     1
102
RTVSPost2010Prop33
280
     0
102
RTVSPost2010PropOp33
 70
     1
102
RTVSPost2010Prop34
280
     0
102
RTVSPost2010PropOp34
 70
     1
102
RTVSPost2010Prop35
280
     0
102
RTVSPost2010PropOp35
 70
     1
102
RTVSPost2010Prop36
280
     0
102
RTVSPost2010PropOp36
 70
     1
102
RTVSPost2010Prop37
 90
       50
102
RTVSPost2010PropOp37
 70
     0
102
RTVSPost2010Prop38
140
0.0
102
RTVSPost2010PropOp38
 70
     0
102
RTVSPost2010Prop39
140
1.0
102
RTVSPost2010PropOp39
 70
     0
102
RTVSPost2010Prop40
 90
        0
102
RTVSPost2010PropOp40
 70
     0
102
RTVSPost2010Prop41ColorIndex
 90
       18
102
RTVSPost2010Prop41ColorRGB
 90
        0
102
RTVSPost2010PropOp41
 70
     0
102
RTVSPost2010Prop42
 90
       50
102
RTVSPost2010PropOp42
 70
     0
102
RTVSPost2010Prop43
 90
        3
102
RTVSPost2010PropOp43
 70
     0
102
RTVSPost2010Prop44ColorIndex
 90
        5
102
RTVSPost2010Prop44ColorRGB
 90
      255
102
RTVSPost2010PropOp44
 70
     0
102
RTVSPost2010Prop45
280
     0
102
RTVSPost2010PropOp45
 70
     1
102
RTVSPost2010Prop46
 90
       50
102
RTVSPost2010PropOp46
 70
     0
102
RTVSPost2010Prop47
 90
       50
102
RTVSPost2010PropOp47
 70
     0
102
RTVSPost2010Prop48
 90
       50
102
RTVSPost2010PropOp48
 70
     0
102
RTVSPost2010Prop49
280
     0
102
RTVSPost2010PropOp49
 70
     1
102
RTVSPost2010Prop50
 90
       50
102
RTVSPost2010PropOp50
 70
     0
102
RTVSPost2010Prop51ColorIndex
 90
      256
102
RTVSPost2010Prop51ColorRGB
 90
-16777216
102
RTVSPost2010PropOp51
 70
     0
102
RTVSPost2010Prop52
140
1.0
102
RTVSPost2010PropOp52
 70
     0
102
RTVSPost2010Prop53
 90
        2
102
RTVSPost2010PropOp53
 70
     0
102
RTVSPost2010Prop54
  1
strokes_ogs.tif
102
RTVSPost2010PropOp54
 70
     0
102
RTVSPost2010Prop55
280
     0
102
RTVSPost2010PropOp55
 70
     1
102
RTVSPost2010Prop56
140
1.0
102
RTVSPost2010PropOp56
 70
     0
102
RTVSPost2010Prop57
140
1.0
102
RTVSPost2010PropOp57
 70
     0
  0
XRECORD
  5
1000199
102
{ACAD_REACTORS
330
1000198
102
}
330
1000198
100
AcDbXrecord
280
     1
102
RTVSPost2010Prop28
280
     0
102
RTVSPost2010PropOp28
 70
     1
102
RTVSPost2010Prop29
280
     1
102
RTVSPost2010PropOp29
 70
     1
102
RTVSPost2010Prop30
280
     1
102
RTVSPost2010PropOp30
 70
     1
102
RTVSPost2010Prop31
280
     0
102
RTVSPost2010PropOp31
 70
     1
102
RTVSPost2010Prop32
280
     0
102
RTVSPost2010PropOp32
 70
     1
102
RTVSPost2010Prop33
280
     0
102
RTVSPost2010PropOp33
 70
     1
102
RTVSPost2010Prop34
280
     0
102
RTVSPost2010PropOp34
 70
     1
102
RTVSPost2010Prop35
280
     0
102
RTVSPost2010PropOp35
 70
     1
102
RTVSPost2010Prop36
280
     0
102
RTVSPost2010PropOp36
 70
     1
102
RTVSPost2010Prop37
 90
       50
102
RTVSPost2010PropOp37
 70
     1
102
RTVSPost2010Prop38
140
0.0
102
RTVSPost2010PropOp38
 70
     1
102
RTVSPost2010Prop39
140
1.0
102
RTVSPost2010PropOp39
 70
     1
102
RTVSPost2010Prop40
 90
        0
102
RTVSPost2010PropOp40
 70
     1
102
RTVSPost2010Prop41ColorIndex
 90
       18
102
RTVSPost2010Prop41ColorRGB
 90
        0
102
RTVSPost2010PropOp41
 70
     1
102
RTVSPost2010Prop42
 90
       50
102
RTVSPost2010PropOp42
 70
     1
102
RTVSPost2010Prop43
 90
        3
102
RTVSPost2010PropOp43
 70
     1
102
RTVSPost2010Prop44ColorIndex
 90
        5
102
RTVSPost2010Prop44ColorRGB
 90
      255
102
RTVSPost2010PropOp44
 70
     1
102
RTVSPost2010Prop45
280
     0
102
RTVSPost2010PropOp45
 70
     1
102
RTVSPost2010Prop46
 90
       50
102
RTVSPost2010PropOp46
 70
     1
102
RTVSPost2010Prop47
 90
       50
102
RTVSPost2010PropOp47
 70
     1
102
RTVSPost2010Prop48
 90
       50
102
RTVSPost2010PropOp48
 70
     1
102
RTVSPost2010Prop49
280
     0
102
RTVSPost2010PropOp49
 70
     1
102
RTVSPost2010Prop50
 90
       50
102
RTVSPost2010PropOp50
 70
     1
102
RTVSPost2010Prop51ColorIndex
 90
      256
102
RTVSPost2010Prop51ColorRGB
 90
-16777216
102
RTVSPost2010PropOp51
 70
     0
102
RTVSPost2010Prop52
140
1.0
102
RTVSPost2010PropOp52
 70
     0
102
RTVSPost2010Prop53
 90
        2
102
RTVSPost2010PropOp53
 70
     1
102
RTVSPost2010Prop54
  1
strokes_ogs.tif
102
RTVSPost2010PropOp54
 70
     1
102
RTVSPost2010Prop55
280
     0
102
RTVSPost2010PropOp55
 70
     1
102
RTVSPost2010Prop56
140
1.0
102
RTVSPost2010PropOp56
 70
     1
102
RTVSPost2010Prop57
140
1.0
102
RTVSPost2010PropOp57
 70
     1
  0
XRECORD
  5
10001AF
102
{ACAD_REACTORS
330
10001AE
102
}
330
10001AE
100
AcDbXrecord
280
     1
102
RTVSPost2010Prop28
280
     0
102
RTVSPost2010PropOp28
 70
     1
102
RTVSPost2010Prop29
280
     1
102
RTVSPost2010PropOp29
 70
     1
102
RTVSPost2010Prop30
280
     1
102
RTVSPost2010PropOp30
 70
     1
102
RTVSPost2010Prop31
280
     0
102
RTVSPost2010PropOp31
 70
     1
102
RTVSPost2010Prop32
280
     0
102
RTVSPost2010PropOp32
 70
     1
102
RTVSPost2010Prop33
280
     0
102
RTVSPost2010PropOp33
 70
     1
102
RTVSPost2010Prop34
280
     0
102
RTVSPost2010PropOp34
 70
     1
102
RTVSPost2010Prop35
280
     0
102
RTVSPost2010PropOp35
 70
     1
102
RTVSPost2010Prop36
280
     0
102
RTVSPost2010PropOp36
 70
     1
102
RTVSPost2010Prop37
 90
       50
102
RTVSPost2010PropOp37
 70
     1
102
RTVSPost2010Prop38
140
0.0
102
RTVSPost2010PropOp38
 70
     1
102
RTVSPost2010Prop39
140
1.0
102
RTVSPost2010PropOp39
 70
     1
102
RTVSPost2010Prop40
 90
        0
102
RTVSPost2010PropOp40
 70
     1
102
RTVSPost2010Prop41ColorIndex
 90
       18
102
RTVSPost2010Prop41ColorRGB
 90
        0
102
RTVSPost2010PropOp41
 70
     1
102
RTVSPost2010Prop42
 90
       50
102
RTVSPost2010PropOp42
 70
     1
102
RTVSPost2010Prop43
 90
        3
102
RTVSPost2010PropOp43
 70
     1
102
RTVSPost2010Prop44ColorIndex
 90
        5
102
RTVSPost2010Prop44ColorRGB
 90
      255
102
RTVSPost2010PropOp44
 70
     1
102
RTVSPost2010Prop45
280
     0
102
RTVSPost2010PropOp45
 70
     1
102
RTVSPost2010Prop46
 90
       50
102
RTVSPost2010PropOp46
 70
     1
102
RTVSPost2010Prop47
 90
       50
102
RTVSPost2010PropOp47
 70
     1
102
RTVSPost2010Prop48
 90
       50
102
RTVSPost2010PropOp48
 70
     1
102
RTVSPost2010Prop49
280
     0
102
RTVSPost2010PropOp49
 70
     1
102
RTVSPost2010Prop50
 90
       50
102
RTVSPost2010PropOp50
 70
     1
102
RTVSPost2010Prop51ColorIndex
 90
      256
102
RTVSPost2010Prop51ColorRGB
 90
-16777216
102
RTVSPost2010PropOp51
 70
     0
102
RTVSPost2010Prop52
140
1.0
102
RTVSPost2010PropOp52
 70
     0
102
RTVSPost2010Prop53
 90
        2
102
RTVSPost2010PropOp53
 70
     1
102
RTVSPost2010Prop54
  1
strokes_ogs.tif
102
RTVSPost2010PropOp54
 70
     1
102
RTVSPost2010Prop55
280
     0
102
RTVSPost2010PropOp55
 70
     1
102
RTVSPost2010Prop56
140
1.0
102
RTVSPost2010PropOp56
 70
     1
102
RTVSPost2010Prop57
140
1.0
102
RTVSPost2010PropOp57
 70
     1
  0
XRECORD
  5
10001AD
102
{ACAD_REACTORS
330
10001AC
102
}
330
10001AC
100
AcDbXrecord
280
     1
102
RTVSPost2010Prop28
280
     0
102
RTVSPost2010PropOp28
 70
     1
102
RTVSPost2010Prop29
280
     1
102
RTVSPost2010PropOp29
 70
     1
102
RTVSPost2010Prop30
280
     1
102
RTVSPost2010PropOp30
 70
     1
102
RTVSPost2010Prop31
280
     0
102
RTVSPost2010PropOp31
 70
     1
102
RTVSPost2010Prop32
280
     0
102
RTVSPost2010PropOp32
 70
     1
102
RTVSPost2010Prop33
280
     0
102
RTVSPost2010PropOp33
 70
     1
102
RTVSPost2010Prop34
280
     0
102
RTVSPost2010PropOp34
 70
     1
102
RTVSPost2010Prop35
280
     0
102
RTVSPost2010PropOp35
 70
     1
102
RTVSPost2010Prop36
280
     0
102
RTVSPost2010PropOp36
 70
     1
102
RTVSPost2010Prop37
 90
       50
102
RTVSPost2010PropOp37
 70
     1
102
RTVSPost2010Prop38
140
0.0
102
RTVSPost2010PropOp38
 70
     1
102
RTVSPost2010Prop39
140
1.0
102
RTVSPost2010PropOp39
 70
     1
102
RTVSPost2010Prop40
 90
        0
102
RTVSPost2010PropOp40
 70
     1
102
RTVSPost2010Prop41ColorIndex
 90
       18
102
RTVSPost2010Prop41ColorRGB
 90
        0
102
RTVSPost2010PropOp41
 70
     1
102
RTVSPost2010Prop42
 90
       50
102
RTVSPost2010PropOp42
 70
     1
102
RTVSPost2010Prop43
 90
        3
102
RTVSPost2010PropOp43
 70
     1
102
RTVSPost2010Prop44ColorIndex
 90
        5
102
RTVSPost2010Prop44ColorRGB
 90
      255
102
RTVSPost2010PropOp44
 70
     1
102
RTVSPost2010Prop45
280
     0
102
RTVSPost2010PropOp45
 70
     1
102
RTVSPost2010Prop46
 90
       50
102
RTVSPost2010PropOp46
 70
     1
102
RTVSPost2010Prop47
 90
       50
102
RTVSPost2010PropOp47
 70
     1
102
RTVSPost2010Prop48
 90
       50
102
RTVSPost2010PropOp48
 70
     1
102
RTVSPost2010Prop49
280
     0
102
RTVSPost2010PropOp49
 70
     1
102
RTVSPost2010Prop50
 90
       50
102
RTVSPost2010PropOp50
 70
     1
102
RTVSPost2010Prop51ColorIndex
 90
      256
102
RTVSPost2010Prop51ColorRGB
 90
-16777216
102
RTVSPost2010PropOp51
 70
     0
102
RTVSPost2010Prop52
140
1.0
102
RTVSPost2010PropOp52
 70
     0
102
RTVSPost2010Prop53
 90
        2
102
RTVSPost2010PropOp53
 70
     1
102
RTVSPost2010Prop54
  1
strokes_ogs.tif
102
RTVSPost2010PropOp54
 70
     1
102
RTVSPost2010Prop55
280
     0
102
RTVSPost2010PropOp55
 70
     1
102
RTVSPost2010Prop56
140
1.0
102
RTVSPost2010PropOp56
 70
     1
102
RTVSPost2010Prop57
140
1.0
102
RTVSPost2010PropOp57
 70
     1
  0
XRECORD
  5
10001A7
102
{ACAD_REACTORS
330
10001A6
102
}
330
10001A6
100
AcDbXrecord
280
     1
102
RTVSPost2010Prop28
280
     0
102
RTVSPost2010PropOp28
 70
     1
102
RTVSPost2010Prop29
280
     1
102
RTVSPost2010PropOp29
 70
     1
102
RTVSPost2010Prop30
280
     1
102
RTVSPost2010PropOp30
 70
     1
102
RTVSPost2010Prop31
280
     0
102
RTVSPost2010PropOp31
 70
     1
102
RTVSPost2010Prop32
280
     0
102
RTVSPost2010PropOp32
 70
     1
102
RTVSPost2010Prop33
280
     0
102
RTVSPost2010PropOp33
 70
     1
102
RTVSPost2010Prop34
280
     0
102
RTVSPost2010PropOp34
 70
     1
102
RTVSPost2010Prop35
280
     0
102
RTVSPost2010PropOp35
 70
     1
102
RTVSPost2010Prop36
280
     0
102
RTVSPost2010PropOp36
 70
     1
102
RTVSPost2010Prop37
 90
       50
102
RTVSPost2010PropOp37
 70
     1
102
RTVSPost2010Prop38
140
0.0
102
RTVSPost2010PropOp38
 70
     1
102
RTVSPost2010Prop39
140
1.0
102
RTVSPost2010PropOp39
 70
     1
102
RTVSPost2010Prop40
 90
        0
102
RTVSPost2010PropOp40
 70
     1
102
RTVSPost2010Prop41ColorIndex
 90
       18
102
RTVSPost2010Prop41ColorRGB
 90
        0
102
RTVSPost2010PropOp41
 70
     1
102
RTVSPost2010Prop42
 90
       50
102
RTVSPost2010PropOp42
 70
     1
102
RTVSPost2010Prop43
 90
        3
102
RTVSPost2010PropOp43
 70
     1
102
RTVSPost2010Prop44ColorIndex
 90
        5
102
RTVSPost2010Prop44ColorRGB
 90
      255
102
RTVSPost2010PropOp44
 70
     1
102
RTVSPost2010Prop45
280
     0
102
RTVSPost2010PropOp45
 70
     1
102
RTVSPost2010Prop46
 90
       50
102
RTVSPost2010PropOp46
 70
     1
102
RTVSPost2010Prop47
 90
       50
102
RTVSPost2010PropOp47
 70
     1
102
RTVSPost2010Prop48
 90
       50
102
RTVSPost2010PropOp48
 70
     1
102
RTVSPost2010Prop49
280
     0
102
RTVSPost2010PropOp49
 70
     1
102
RTVSPost2010Prop50
 90
       50
102
RTVSPost2010PropOp50
 70
     1
102
RTVSPost2010Prop51ColorIndex
 90
      256
102
RTVSPost2010Prop51ColorRGB
 90
-16777216
102
RTVSPost2010PropOp51
 70
     0
102
RTVSPost2010Prop52
140
1.0
102
RTVSPost2010PropOp52
 70
     0
102
RTVSPost2010Prop53
 90
        2
102
RTVSPost2010PropOp53
 70
     1
102
RTVSPost2010Prop54
  1
strokes_ogs.tif
102
RTVSPost2010PropOp54
 70
     1
102
RTVSPost2010Prop55
280
     0
102
RTVSPost2010PropOp55
 70
     1
102
RTVSPost2010Prop56
140
1.0
102
RTVSPost2010PropOp56
 70
     1
102
RTVSPost2010Prop57
140
1.0
102
RTVSPost2010PropOp57
 70
     1
  0
XRECORD
  5
10001A9
102
{ACAD_REACTORS
330
10001A8
102
}
330
10001A8
100
AcDbXrecord
280
     1
102
RTVSPost2010Prop28
280
     0
102
RTVSPost2010PropOp28
 70
     1
102
RTVSPost2010Prop29
280
     1
102
RTVSPost2010PropOp29
 70
     1
102
RTVSPost2010Prop30
280
     1
102
RTVSPost2010PropOp30
 70
     1
102
RTVSPost2010Prop31
280
     0
102
RTVSPost2010PropOp31
 70
     1
102
RTVSPost2010Prop32
280
     0
102
RTVSPost2010PropOp32
 70
     1
102
RTVSPost2010Prop33
280
     0
102
RTVSPost2010PropOp33
 70
     1
102
RTVSPost2010Prop34
280
     0
102
RTVSPost2010PropOp34
 70
     1
102
RTVSPost2010Prop35
280
     0
102
RTVSPost2010PropOp35
 70
     1
102
RTVSPost2010Prop36
280
     0
102
RTVSPost2010PropOp36
 70
     1
102
RTVSPost2010Prop37
 90
       50
102
RTVSPost2010PropOp37
 70
     1
102
RTVSPost2010Prop38
140
0.0
102
RTVSPost2010PropOp38
 70
     1
102
RTVSPost2010Prop39
140
1.0
102
RTVSPost2010PropOp39
 70
     1
102
RTVSPost2010Prop40
 90
        0
102
RTVSPost2010PropOp40
 70
     1
102
RTVSPost2010Prop41ColorIndex
 90
       18
102
RTVSPost2010Prop41ColorRGB
 90
        0
102
RTVSPost2010PropOp41
 70
     1
102
RTVSPost2010Prop42
 90
       50
102
RTVSPost2010PropOp42
 70
     1
102
RTVSPost2010Prop43
 90
        3
102
RTVSPost2010PropOp43
 70
     1
102
RTVSPost2010Prop44ColorIndex
 90
        5
102
RTVSPost2010Prop44ColorRGB
 90
      255
102
RTVSPost2010PropOp44
 70
     1
102
RTVSPost2010Prop45
280
     0
102
RTVSPost2010PropOp45
 70
     1
102
RTVSPost2010Prop46
 90
       50
102
RTVSPost2010PropOp46
 70
     1
102
RTVSPost2010Prop47
 90
       50
102
RTVSPost2010PropOp47
 70
     1
102
RTVSPost2010Prop48
 90
       50
102
RTVSPost2010PropOp48
 70
     1
102
RTVSPost2010Prop49
280
     0
102
RTVSPost2010PropOp49
 70
     1
102
RTVSPost2010Prop50
 90
       50
102
RTVSPost2010PropOp50
 70
     1
102
RTVSPost2010Prop51ColorIndex
 90
      256
102
RTVSPost2010Prop51ColorRGB
 90
-16777216
102
RTVSPost2010PropOp51
 70
     0
102
RTVSPost2010Prop52
140
1.0
102
RTVSPost2010PropOp52
 70
     0
102
RTVSPost2010Prop53
 90
        2
102
RTVSPost2010PropOp53
 70
     1
102
RTVSPost2010Prop54
  1
strokes_ogs.tif
102
RTVSPost2010PropOp54
 70
     1
102
RTVSPost2010Prop55
280
     0
102
RTVSPost2010PropOp55
 70
     1
102
RTVSPost2010Prop56
140
1.0
102
RTVSPost2010PropOp56
 70
     1
102
RTVSPost2010Prop57
140
1.0
102
RTVSPost2010PropOp57
 70
     1
  0
XRECORD
  5
100019F
102
{ACAD_REACTORS
330
100019E
102
}
330
100019E
100
AcDbXrecord
280
     1
102
RTVSPost2010Prop28
280
     0
102
RTVSPost2010PropOp28
 70
     1
102
RTVSPost2010Prop29
280
     1
102
RTVSPost2010PropOp29
 70
     1
102
RTVSPost2010Prop30
280
     1
102
RTVSPost2010PropOp30
 70
     1
102
RTVSPost2010Prop31
280
     0
102
RTVSPost2010PropOp31
 70
     1
102
RTVSPost2010Prop32
280
     0
102
RTVSPost2010PropOp32
 70
     1
102
RTVSPost2010Prop33
280
     0
102
RTVSPost2010PropOp33
 70
     1
102
RTVSPost2010Prop34
280
     0
102
RTVSPost2010PropOp34
 70
     1
102
RTVSPost2010Prop35
280
     0
102
RTVSPost2010PropOp35
 70
     1
102
RTVSPost2010Prop36
280
     0
102
RTVSPost2010PropOp36
 70
     1
102
RTVSPost2010Prop37
 90
       50
102
RTVSPost2010PropOp37
 70
     1
102
RTVSPost2010Prop38
140
0.0
102
RTVSPost2010PropOp38
 70
     1
102
RTVSPost2010Prop39
140
1.0
102
RTVSPost2010PropOp39
 70
     1
102
RTVSPost2010Prop40
 90
        0
102
RTVSPost2010PropOp40
 70
     1
102
RTVSPost2010Prop41ColorIndex
 90
       18
102
RTVSPost2010Prop41ColorRGB
 90
        0
102
RTVSPost2010PropOp41
 70
     1
102
RTVSPost2010Prop42
 90
       50
102
RTVSPost2010PropOp42
 70
     1
102
RTVSPost2010Prop43
 90
        3
102
RTVSPost2010PropOp43
 70
     1
102
RTVSPost2010Prop44ColorIndex
 90
        5
102
RTVSPost2010Prop44ColorRGB
 90
      255
102
RTVSPost2010PropOp44
 70
     1
102
RTVSPost2010Prop45
280
     0
102
RTVSPost2010PropOp45
 70
     1
102
RTVSPost2010Prop46
 90
       50
102
RTVSPost2010PropOp46
 70
     1
102
RTVSPost2010Prop47
 90
       50
102
RTVSPost2010PropOp47
 70
     1
102
RTVSPost2010Prop48
 90
       50
102
RTVSPost2010PropOp48
 70
     1
102
RTVSPost2010Prop49
280
     0
102
RTVSPost2010PropOp49
 70
     1
102
RTVSPost2010Prop50
 90
       50
102
RTVSPost2010PropOp50
 70
     1
102
RTVSPost2010Prop51ColorIndex
 90
      256
102
RTVSPost2010Prop51ColorRGB
 90
-16777216
102
RTVSPost2010PropOp51
 70
     0
102
RTVSPost2010Prop52
140
1.0
102
RTVSPost2010PropOp52
 70
     0
102
RTVSPost2010Prop53
 90
        2
102
RTVSPost2010PropOp53
 70
     1
102
RTVSPost2010Prop54
  1
strokes_ogs.tif
102
RTVSPost2010PropOp54
 70
     1
102
RTVSPost2010Prop55
280
     0
102
RTVSPost2010PropOp55
 70
     1
102
RTVSPost2010Prop56
140
1.0
102
RTVSPost2010PropOp56
 70
     1
102
RTVSPost2010Prop57
140
1.0
102
RTVSPost2010PropOp57
 70
     1
  0
XRECORD
  5
1000193
102
{ACAD_REACTORS
330
1000192
102
}
330
1000192
100
AcDbXrecord
280
     1
102
RTVSPost2010Prop28
280
     0
102
RTVSPost2010PropOp28
 70
     1
102
RTVSPost2010Prop29
280
     1
102
RTVSPost2010PropOp29
 70
     1
102
RTVSPost2010Prop30
280
     1
102
RTVSPost2010PropOp30
 70
     1
102
RTVSPost2010Prop31
280
     0
102
RTVSPost2010PropOp31
 70
     1
102
RTVSPost2010Prop32
280
     0
102
RTVSPost2010PropOp32
 70
     1
102
RTVSPost2010Prop33
280
     0
102
RTVSPost2010PropOp33
 70
     1
102
RTVSPost2010Prop34
280
     0
102
RTVSPost2010PropOp34
 70
     1
102
RTVSPost2010Prop35
280
     0
102
RTVSPost2010PropOp35
 70
     1
102
RTVSPost2010Prop36
280
     0
102
RTVSPost2010PropOp36
 70
     1
102
RTVSPost2010Prop37
 90
       50
102
RTVSPost2010PropOp37
 70
     1
102
RTVSPost2010Prop38
140
0.0
102
RTVSPost2010PropOp38
 70
     1
102
RTVSPost2010Prop39
140
1.0
102
RTVSPost2010PropOp39
 70
     1
102
RTVSPost2010Prop40
 90
        0
102
RTVSPost2010PropOp40
 70
     1
102
RTVSPost2010Prop41ColorIndex
 90
       18
102
RTVSPost2010Prop41ColorRGB
 90
        0
102
RTVSPost2010PropOp41
 70
     1
102
RTVSPost2010Prop42
 90
       50
102
RTVSPost2010PropOp42
 70
     1
102
RTVSPost2010Prop43
 90
        3
102
RTVSPost2010PropOp43
 70
     1
102
RTVSPost2010Prop44ColorIndex
 90
        5
102
RTVSPost2010Prop44ColorRGB
 90
      255
102
RTVSPost2010PropOp44
 70
     1
102
RTVSPost2010Prop45
280
     0
102
RTVSPost2010PropOp45
 70
     1
102
RTVSPost2010Prop46
 90
       50
102
RTVSPost2010PropOp46
 70
     1
102
RTVSPost2010Prop47
 90
       50
102
RTVSPost2010PropOp47
 70
     1
102
RTVSPost2010Prop48
 90
       50
102
RTVSPost2010PropOp48
 70
     1
102
RTVSPost2010Prop49
280
     0
102
RTVSPost2010PropOp49
 70
     1
102
RTVSPost2010Prop50
 90
       50
102
RTVSPost2010PropOp50
 70
     1
102
RTVSPost2010Prop51ColorIndex
 90
      256
102
RTVSPost2010Prop51ColorRGB
 90
-16777216
102
RTVSPost2010PropOp51
 70
     0
102
RTVSPost2010Prop52
140
1.0
102
RTVSPost2010PropOp52
 70
     0
102
RTVSPost2010Prop53
 90
        2
102
RTVSPost2010PropOp53
 70
     1
102
RTVSPost2010Prop54
  1
strokes_ogs.tif
102
RTVSPost2010PropOp54
 70
     1
102
RTVSPost2010Prop55
280
     0
102
RTVSPost2010PropOp55
 70
     1
102
RTVSPost2010Prop56
140
1.0
102
RTVSPost2010PropOp56
 70
     1
102
RTVSPost2010Prop57
140
1.0
102
RTVSPost2010PropOp57
 70
     1
  0
XRECORD
  5
10001AB
102
{ACAD_REACTORS
330
10001AA
102
}
330
10001AA
100
AcDbXrecord
280
     1
102
RTVSPost2010Prop28
280
     0
102
RTVSPost2010PropOp28
 70
     1
102
RTVSPost2010Prop29
280
     1
102
RTVSPost2010PropOp29
 70
     1
102
RTVSPost2010Prop30
280
     1
102
RTVSPost2010PropOp30
 70
     1
102
RTVSPost2010Prop31
280
     0
102
RTVSPost2010PropOp31
 70
     1
102
RTVSPost2010Prop32
280
     0
102
RTVSPost2010PropOp32
 70
     1
102
RTVSPost2010Prop33
280
     0
102
RTVSPost2010PropOp33
 70
     1
102
RTVSPost2010Prop34
280
     0
102
RTVSPost2010PropOp34
 70
     1
102
RTVSPost2010Prop35
280
     0
102
RTVSPost2010PropOp35
 70
     1
102
RTVSPost2010Prop36
280
     0
102
RTVSPost2010PropOp36
 70
     1
102
RTVSPost2010Prop37
 90
       50
102
RTVSPost2010PropOp37
 70
     1
102
RTVSPost2010Prop38
140
0.0
102
RTVSPost2010PropOp38
 70
     1
102
RTVSPost2010Prop39
140
1.0
102
RTVSPost2010PropOp39
 70
     1
102
RTVSPost2010Prop40
 90
        0
102
RTVSPost2010PropOp40
 70
     1
102
RTVSPost2010Prop41ColorIndex
 90
       18
102
RTVSPost2010Prop41ColorRGB
 90
        0
102
RTVSPost2010PropOp41
 70
     1
102
RTVSPost2010Prop42
 90
       50
102
RTVSPost2010PropOp42
 70
     1
102
RTVSPost2010Prop43
 90
        3
102
RTVSPost2010PropOp43
 70
     1
102
RTVSPost2010Prop44ColorIndex
 90
        5
102
RTVSPost2010Prop44ColorRGB
 90
      255
102
RTVSPost2010PropOp44
 70
     1
102
RTVSPost2010Prop45
280
     0
102
RTVSPost2010PropOp45
 70
     1
102
RTVSPost2010Prop46
 90
       50
102
RTVSPost2010PropOp46
 70
     1
102
RTVSPost2010Prop47
 90
       50
102
RTVSPost2010PropOp47
 70
     1
102
RTVSPost2010Prop48
 90
       50
102
RTVSPost2010PropOp48
 70
     1
102
RTVSPost2010Prop49
280
     0
102
RTVSPost2010PropOp49
 70
     1
102
RTVSPost2010Prop50
 90
       50
102
RTVSPost2010PropOp50
 70
     1
102
RTVSPost2010Prop51ColorIndex
 90
      256
102
RTVSPost2010Prop51ColorRGB
 90
-16777216
102
RTVSPost2010PropOp51
 70
     0
102
RTVSPost2010Prop52
140
1.0
102
RTVSPost2010PropOp52
 70
     0
102
RTVSPost2010Prop53
 90
        2
102
RTVSPost2010PropOp53
 70
     1
102
RTVSPost2010Prop54
  1
strokes_ogs.tif
102
RTVSPost2010PropOp54
 70
     1
102
RTVSPost2010Prop55
280
     0
102
RTVSPost2010PropOp55
 70
     1
102
RTVSPost2010Prop56
140
1.0
102
RTVSPost2010PropOp56
 70
     1
102
RTVSPost2010Prop57
140
1.0
102
RTVSPost2010PropOp57
 70
     1
  0
ENDSEC
  0
EOF
